Ac Dc

Ac Dc - Shook Me All Night Intro guitar tab

A/C D\C Intro to "shook me all night long":

By Brian S.

Since there is not 1 decent intro for this

i figured i'd do it myself...

Intro 2x :

G N.C. D G D 2nd time omit this

e-3~~~~--x-x---5--p3~~--3-/2--2~~~-|---------------------|

b-3~~~~--x-x---3---3~~--3-----3~~~-|---------------------|

g-0~~~~--------0---0~~--0-----2~~~-|--------------2------|

d----------------------------------|-3p0~~~-3~~/4---4--0-|

a----------------------------------|---------------------|

E----------------------------------|---------------------|

Verse :

G C D

e------------------------------------------------|-------|

b------------------------------------------------|-------|

g-------5-5~-----5------7~~~-----------5-----7---|-------|

d--5~~--5-5~--5--5--5---7~~~------5-5--5--5--7---|-------|

a--5~~--3-3~--5--3--5---5~~~------5-5--3--5--5---|-------|

E--3~~--------3-----3-------------3-3-----3------|-------|

Chorus

G Em N.C.

e-3-3------------------------------------------------------|

b-x-x------------------------------------------------------|

g-0-0-----------0--------------0------0--------------------|

d-0-0---------2-------------2------0-----------------------|

a-2-2---0-2-3-------------2-----0--------0--2--3~~~~-2--0~-|

E-3-3------------------------------------------------------|

You You shook me all night long

Get this song at:  amazon.com sheetmusicplus.com

Share your thoughts

0 Comments found