Ac Dc

Ac Dc - She's Got Balls guitar tab

Intro

E|-------------------|-----------------------|----------------------|

B|-------------------|-----------------------|----------------------|

G|-------------------|-----------------------|----------------------|

D|-------------------|--------------------5--|----------------------|

A|----------------0--|--0----0----0----0--3--|------0----0----0-----|

E|-------------------|-----------------------|-------------------3--|

and so on...

|-----------------------|----------------------|-----------------------|

|-----------------------|----------------------|-----------------------|

|-----------------------|----------------------|-----------------------|

|--------------------5--|----------------------|--------------------5--|

|--0----0----0----0--3--|------0----0----0-----|--0----0----0----0--3--|

|-----------------------|-------------------3--|-----------------------|

2nd guitar plays a little bit different:

|-------------------|-----------------------|----------------------|

|-------------------|-----------------------|----------------------|

|-------------------|-----------------------|----------------------|

|-------------------|--------------------5--|----------------------|

|-------------------|--0----0----0----0--3--|------0----0----0-----|

|----------------3--|-----------------------|-------------------3--|

|-----------------------|

|-----------------------|

|-----------------------|

|-----------------7--5--|

|--0----0----0----5--3--|

|-----------------------|

both guitars: but most important...

|-----------------------|----------------------|-------------------|

|-----------------------|----------------------|-------------------|

|-----------------------|----------------------|-------------------|

|--------------------5--|-------------------3--|--3----------------|

|--0----0----0----0--3--|------0----0----0--3--|--3----------------|

|-----------------------|-------------------1--|--1----------------|

let me tell ya...

|-------------------|-------------------|--------------------|

|-------------------|-------------------|--------------------|

|-------------------|-------------------|----------5----5----|

|----------------5--|--5----------------|----------5----5----|

|----------------5--|--5----------------|----------3----3----|

|----------------3--|--3----------------|--------------------|

she's got balls

|----------------------|----------------------|----------------------|

|----------------------|----------------------|----------------------|

|--2----2----2----2----|--2----2----5----5----|--2----2----2----2----|

|--2----2----2----2----|--2----2----5----5----|--2----2----2----2----|

|--0----0----0----0----|--0----0----3----3----|--0----0----0----0----|

|----------------------|----------------------|----------------------|

she's got balls she's got

|----------------------|----------------------|----------------------|

|----------------------|----------------------|----------------------|

|--2----2----5----5----|--2----2----2----2----|--2----2----5----5----|

|--2----2----5----5----|--2----2----2----2----|--2----2----5----5----|

|--0----0----3----3----|--0----0----0----0----|--0----0----3----3----|

|----------------------|----------------------|----------------------|

balls to verse:

|----------------------|---------------------------|------------------|

|----------------------|---------------------------|------------------|

|--2----2----2----2----|--2----2----5----5----5----|------------------|

|--2----2----2----2----|--2----2----5----5----5----|------------------|

|--0----0----0----0----|--0----0----3----3----3----|------------------|

|----------------------|---------------------------|------------------|

Get this song at:  amazon.com

Share your thoughts

0 Comments found