Ac Dc

Ac Dc - She Shook Me All Night Long guitar tab

b = bend

r = release bend

br = bend and release bend

p = pull-off

* = pinch harmonic

~ = vibrato

- Its all in chronological order

Intro (Guitar 1)

|-------------------------------------------------------------|

|-8-------10p8---8-------8p7------------7-------------7-------|

|-7------- 7-7---7---7---7-7---7--------7-------------7-------|

|-0--------------------------------0----0-------------0-------|

|-------------------------------------------------8-----------|

|-------------------------------------------------------------|

-------------------------------------------------------------------------|

------------7-----7--------------8-------10p8---8-------8p7------------7-|

------------7-----7--------------7------- 7-7-------7---7-7---7--------7-|

------------------0--------------0--------------------------------0----0-|

------8---b----r8p0------------------------------------------------------|

-------------------------------------------------------------------------|

Verse (Guitar 1):

|-----------------------------------------------------------------|

|------------1---1--------1-------3----------3---3-3----3----3----|

|-0----------0---0--0-----0-----0-2----------0---0-2----0----2----| x5

|-0-----------------0-----------0-0----------0---0-0----0----0----|

|-----------------------------------------------------------------|

|-----------------------------------------------------------------|

Guitar 2 - come in on 5th of the above:

|-3----------3---3--3-----3-----3-2-----------3-----2---------2---|

|-3----------3---3--3-----3-----3-3-----------3-----3----3----3---|

|-0----------0---0--0-----0-----0-2-----------0-----2----0----2---|

|-0----------2---2--0-----2-----0-0-----------0-----0----0----0---|

|-x----------3---3--x-----3-----x-------------x----------x--------|

|-3-----------------3-----------3-------------3---3------3--------|

Prechorus (Guitar 1):

|---------------------------------------------------------|

|------------1---1--------1-------3-----3----3-----3------|

|-0----------0---0--0-----0-----0-2-----2----0-----2------|

|-0-----------------0-----------0-0-----0----0-----0------|

|---------------------------------------------------------|

|---------------------------------------------------------|

Guitar 2:

|-3----------3---3--3-----3-----3-2--222222--2--22222222--|

|-3----------3---3--3-----3-----3-3--333333--3--33333333--|

|-0----------0---0--0-----0-----0-2--222222--2--22222222--|

|-0----------2---2--0-----2-----0-0--000000--0--00000000--|

|-x----------3---3--x-----3-----x-------------------------|

|-3-----------------3-----------3-------------------------|

Chorus (Guitar 1 or 2):

|-----3--------------------------------2-------------------------------|

|-----3------------------3-------3--3--3------------------3-------3----|

|--0--0----------------0-------0----2--2----------------0-------0---0--| x2

|--0--0-----------------------------0--0-------------------------------|

|--2--2---------0-2-3-------2--------------------0-2-3-------2---------|

|--3--3----------------------------------------------------------------|

Other guitar (same time as above):

|----------------------------------------------------------------------|

|--------------------------------------3------------------3-------3----|

|-------------------5-------5----------2----------------0-------0---0--| x2

|-----5-------------5-------5----------0-------------------------------|

|-----5---------0-2-3-------2--------------------0-2-3-------2---------|

|-----3----------------------------------------------------------------|

Verse 2: Same for both guitars except they both do it 4 times at the

same time.

Prechorus: Same for both guitars.

Chorus: 3x

Chorus ending (guitar 1):

|-----3--------------------------------2-222222-3-------2-222222222222222-|

|-----3------------------3-------3--3--3-333333-3-------3-333333333333333-|

|--0--0----------------0-------0----2--2-222222-2-------2-222222222222222-|

|--0--0-----------------------------0--0-000000-0-------0-000000000000000-|

|--2--2---------0-2-3-------2---------------------------------------------|

|--3--3-------------------------------------------------------------------|

Guitar 2:

|-------------------------------------------------------------------------|

|-------------------------------------------------------------------------|

|-------------------5-------5----------7-77777777777777777777777777777777-|

|-----5-------------5-------5----------7-55555555555555555555555555555555-|

|-----5---------0-2-3-------2----------5-55555555555555555555555555555555-|

|-----3-------------------------------------------------------------------|

Solo (*** Other guitar plays chorus in background.***):

|---------3------------------------------------|

|------------3---6-----------------------------|

|--5b----------------5br--3--------------------|

|----------------------------5----5---3--------|

|----------------------------------------5---3-|

|----------------------------------------------|

|----------------------------------------------|

|----------------------------------66------88--|

|------------------------------/7-------/9-----|

|-----8*----5*----5*----8*---------------------|

|----------------------------------------------|

|-6-x------------------------------------------|

|-----------10--------------8------------------|

|-----8--10b---r10--8----8-----11b--8------8---|

|--/9-----------------------------------9------|

|----------------------------------------------|

|----------------------------------------------|

|----------------------------------------------|

|-----------15---------------------------------|

|---18b--------15---18------------------17-15--|

|------------------------17br---15------17-15--|

|-----------------------------------17---------|

|----------------------------------------------|

|----------------------------------------------|

|----------------------------------------------|

|------18-------18----------------17-15-17-15--|

|-17b------17b------17br---15-----17-15-17-15--|

|-----------------------------17---------------|

|----------------------------------------------|

|----------------------------------------------|

|------18b---18b(19)~~~~~--18b(19)-17p15-17----|

|--15---------------------------------------17-|

|----------------------------------------------|

|----------------------------------------------|

|----------------------------------------------|

|----------------------------------------------|

e:-15----------15-------------------------------15----15-15--17br--15-|

b:------8b--------15--18-------------------17-----17-----------------|

g:------------------------17br--15/19~~~~-----------------------------|

d:--------------------------------------------------------------------|

a:--------------------------------------------------------------------|

e:--------------------------------------------------------------------|

Chorus (Guitar 1):

|-----3--------------------------------2-------------------------------|

|-----3------------------3-------3--3--3------------------3-------3----|

|--0--0----------------0-------0----2--2----------------0-------0---0--| x4

|--0--0-----------------------------0--0-------------------------------|

|--2--2---------0-2-3-------2--------------------0-2-3-------2---------|

|--3--3----------------------------------------------------------------|

Guitar 2:

|----------------------------------------------------------------------|

|--------------------------------------3-3333-------------3-------3----|

|-------------------5-------5----------2-2222-----------0-------0---0--| x4

|-----5-------------5-------5----------0-0000--------------------------|

|-----5---------0-2-3-------2--------------------0-2-3-------2---------|

|-----3----------------------------------------------------------------|

Chorus ending (Guitar 1):

|--2-------------------------------|

|--3------------------3-------3----|

|--2----------------0-------0---0--| x2

|--0-------------------------------|

|------------0-2-3-------2---------|

|----------------------------------|

Guitar 2:

|----------------------------------|

|--3-3333-------------3-------3----|

|--2-2222-----------0-------0---0--| x2

|--0-0000--------------------------|

|------------0-2-3-------2---------|

|----------------------------------|

Outro (Guitar 1 and 2):

|--2-22222222222222222222222-|

|--3-33333333333333333333333-|

|--2-22222222222222222222222-|

|--0-00000000000000000000000-|

|----------------------------|

|----------------------------|

Get this song at:  amazon.com

Share your thoughts

0 Comments found