Ac Dc

Ac Dc - Send For The Man guitar tab

Send For The Man by AC/DC

From Fly On The Wall 1985

Tabbed by Chris Adams

E-mail me at angus207@hotmail.com

Intro, Verse, & Chorus

E--------------------------------------|

B--------------------------------------|

G-5-----------------5------------------|

D-5-3/5--3/5-3/5-3--5-3/5--3/5-3/5-3---|

A-3-3/5--3/5-3/5-3--5-3/5--3/5-3/5-3---|

E---1/3--1/3-1/3-1----1/3--1/3-1/3-1---|

This part is from memory, if it's not right, it's close

E------------------|

B------------------|

G-7---5------------|

D-7-5-5--3/5--3/5--|

A-5-5-3--3/5--3/5--|

E---3----1/3-1/3---|

Feel free to distribute this around the net. I've never seen the correct

version anywhere.

Get this song at:  amazon.com sheetmusicplus.com

Share your thoughts

0 Comments found