Ac Dc

Ac Dc - Schools Days guitar tab

School Days by AC/DC

Intro

E---||--------5--5---||---------------------------||--------------------

B---||--------5--5---||---------------------------||--------------------

G---||*--5/6--------*||--4^--4--4--4--4--4--4--4--||--------------------

D---||*-------------*||---------------------------||--------------------

A---||---------------||---------------------------||--------------------

E---||---------------||---------------------------||--------------------

Hold Bend

E---||------------------------------------------------------------------

B---||------------------------------------------------------------------

G---||*------------------------------------0h2--2--4--5--4--0h2--2------

D---||*--0h2--2--4--5--4--0h2--2--4--5--4--0-0--0--0--0--0--0-0--0------

A---||---0-0--0--0--0--0--0-0--0--0--0--0-------------------------------

E---||------------------------------------------------------------------

E-----------------------------------------------------------------------

B-----------------------------------------------------------------------

G---4--5--4-------------------------------------------------------------

D---0--0--0--0h2--2--4--5--4--0h2--2--4--5--4---------------------------

A------------0-0--0--0--0--0--0-0--0--0--0--0--0h2--2--4--5--4--0h2-----

E----------------------------------------------0-0--0--0--0--0--0-0-----

Beginning of solo

E----------------||-----||---5--5--5-----5----------5---||--------------

B----------------||-----||---5--5--5--------7-----------||--------------

G---------------*||-----||*--------------------5/6-----*||--------------

D---------------*||-----||*----------------------------*||--------------

A---2--4--5--4---||-----||------------------------------||--------------

E---0--0--0--0---||-----||------------------------------||--------------

E---||--------5---||----------------------------------------------------

B---||--------5---||----------------------------------------------------

G---||*--6/7-----*||----------------------------------------------------

D---||*----------*||----------------------------------------------------

A---||------------||----------------------------------------------------

E---||------------||----------------------------------------------------

Get this song at:  amazon.com sheetmusicplus.com

Share your thoughts

0 Comments found