Ac Dc

Ac Dc - Satellite Blues Bass guitar tab

AC/DC-Satellite Blues

*****************************************************************

Tabbed by: Alex MacDonald

Email: webmaster at tabs-database.com.com

Tuning: Standard

Bass comes in at 0:48

G|-----|

D|-----|

A|-5---|

E|-----|

G|-----------------------------------------------------------|

D|-----------------------------------------------------------|

A|-0-0-0-0-0-0-0-0-0-0-0-0-0-0-------------------------------|

E|-----------------------------2-3-3-2-3-2-0-2---3-3-2-3-3-3-|

G|-----------------------------------------------------|

D|-----------------------------------------------------|

A|-0-0-0-0-0-0-0-0-0-0-0-0-----------------3-3-2-3-2---|

E|-------------------------2-3-3-2-3-2-0-3-----------3-|

G|-------------------------------------|

D|------------------5-5---5------------|

A|----------------5-----5---5------3-2-|

E|-5-5-3--3-5-5------------------3-----|

G|-------------------------------------0-------|

D|--------------------5-5---5--------4---------|

A|------------------5-----5---5----------------|

E|---5-5-3--3-5-5-------------------------2-3-4|

G|--------------------------------------------|

D|------------------5-5---5-------------------|

A|----------------5-----5---5-----------------|

E|-5-5-3--3-5-5-----------------0-1-0-2-0-3-0-|

G|---------------------------------------------|

D|------------------5-5---5--------------------|

A|----------------5-----5---5----5-------------|

E|-3-3-5--5-3-3--------------------------------|

G|----------------------------------------------------------|

D|----------------------------------------------------------|

A|-0-0-0-0-0-0-0-0-0-0-0-0-0-0------------------------------|

E|-----------------------------2-3-3-2-3-2-0-2--3-3-2-3-3-3-|

G|-------------------------------------------------------|

D|-------------------------------------------------------|

A|-0-0-0-0-0-0-0-0-0-0-0-0-0-0-0-------------3-3-2-3-2---|

E|-------------------------------2-3-3-2-0-3-----------3-|

G|----------------------------------------------------------|

D|----------------------------------------------------------|

A|-0-0-0-0-0-0-0-0-0-0-0-0-0-0------------------------------|

E|-----------------------------2-3-3-2-3-2-0-2--3-3-2-3-3-3-|

G|----------------------------------------------------|

D|----------------------------------------------------|

A|-0-0-0-0-0-0-0-0-0-0-0-0-0-0------------------------|

E|-----------------------------2-3-3-2-3-2-0-3--3-3-3-|

G|----------------------------------------------|

D|----------------------------------------------|

A|-3-3--3-------3-3---3-------3-3--3-------5----|

E|----3---3--3------3---3--3-----3---3--3-------|

G|----------------------------------------------------------|

D|----------------------------------------------------------|

A|-0-0-0-0-0-0-0-0-0-0-0-0-0-0------------------------------|

E|-----------------------------2-3-3-2-3-2-0-2--3-3-2-3-3-3-|

G|----------------------------------------------------------|

D|----------------------------------------------------------|

A|-0-0-0-0-0-0-0-0-0-0-0-0-0-0------------------3-3---3-2---|

E|-----------------------------2-3-3-2-3-2-0-3------3-----3-|

G|-------------------------------------------------------------|

D|-----------------------------------------------5-5-4-5-5-5-5-|

A|--0-0-0-0-0-0-0-0-0-0-0-0-0--5-5-5-5-5-5-5-5-5---------------|

E|-------------------------------------------------------------|

G|------------------------------------------------------------------------|

D|---------------------------------5-5---5-------5-5---5-------5-5---5----|

A|-0-0-0-0-0-0-0-0-0-0-0-0-0-0-5-------5---5---------5---5---------5---5--|

E|------------------------------------------------------------------------|

G|---------------------------------------------------------------|

D|---------------------------------------------------------------|

A|-0-0-0-0-0-0-0-0-0-0-0-0-0-0-0-------------------3-3---3-------|

E|-------------------------------2-3-3-2-3-2-0-3-------3---3-3-3-|

G|---------------------------------------------------------------|

D|---------------------------------------------------------------|

A|-0-0-0-0-0-0-0-0-0-0-0-0-0-0-0-------------------3-3---3-------|

E|-------------------------------2-3-3-2-3-2-0-3-------3---3-3-3-|

G|---------------------------------------------------------------|

D|---------------------------------------------------------------|

A|-0-0-0-0-0-0-0-0-0-0-0-0-0-0-0-------------------3-3---3-------|

E|-------------------------------2-3-3-2-3-2-0-3-------3---3-3-3-|

G|---------------------------------------------------------------|

D|---------------------------------------------------------------|

A|-0-0-0-0-0-0-0-0-0-0-0-0-0-0-0-------------------3-3---3-------|

E|-------------------------------2-3-3-2-3-2-0-3-------3---3-3-3-|

G|--------------|

D|--------------|

A|--3-3---3-----|

E|------3---3-3-|

G|------------------------------------|

D|---------------5--5----5------------|

A|--3-3---3----5------5----5---0----0-|

E|------3---3-------------------------|

Added by tabs-database.com and our distinguished partners

Get this song at:  amazon.com

Share your thoughts

0 Comments found