Ac Dc

Ac Dc - Ruff Stuff guitar tab

Auther/Artist:AC/DC

Title:Ruff Stuff

Album:Blow Up Your Video

Transcribed by:Justin Harmon

Email:womenarenice@hotmail.com

This is I think the best song on this album.

For the Intro/Intro Verse I strum on the C# chord

but you can strum whenever you want,whatever sounds good

to you.I do not show timing u have to listen to the song

Intro/Intro Verse:

E-------------------------------------------------------------------

B-------------------------------------------------------------------

G-------------------------------------------------------------------

D--------------------6---------------------------6------------------

A--3--4--3--1--1--3--4--3--4---3--4--3--1--1--3--4--3--4------------

E-------------------------------------------------------------------

--------------------------------------------------------------------

--------------------------------------------------------------------

-------------------------------------------------------------6------

--------------------6---------------------------6---------6--6------

--3--4--3--1--1--3--4--3--4---3--4--3--1--1--3--4--3--4---6--4------

----------------------------------------------------------4---------

Verse:

E-------------------------------------------------------------------------------

B-------------------------------------------------------------------------------

G--6--6--6--6--6-6----6--6--6--6--6-6----6--6--6--6--6-6----6--6--6--6--6-6-----

D--6--6--6--6--6-6----6--6--6--6--6-6----6--6--6--6--6-6----6--6--6--6--6-6-----

A--3--4--3--4--3-4----3--4--3--4--3-4----3--4--3--4--3-4----3--4--3--4--3-4-----

E-------------------------------------------------------------------------------

---------------------------------------------

---------------------------------------------

--6--6--6--6--6-6----6--6--6--6--6-6---------

--6--6--6--6--6-6----6--6--6--6--6-6---------

--3--4--3--4--3-4----3--4--3--4--3-4---------

---------------------------------------------

--------------------------------------------------------------

--------------------------------------------------------------

--------------------------------------------------------------

--------------------6---------------------------6-------------

--3--4--3--1--1--3--4--3--4---3--4--3--1--1--3--4--3--4-------

--------------------------------------------------------------

--------------------------------------------------------------

--------------------------------------------------------------

--------------------------------------------------------------

--------------------6---------------------------6-------------

--3--4--3--1--1--3--4--3--4---3--4--3--1--1--3--4--3--4-------

--------------------------------------------------------------

Pre-Chorus:

E-------------------------

B-------------------------

G--8----6-----------------

D--8----6-----4-----------

A--6----4-----4-----------

E-------------2-----------

Chorus:

E-------------------------------------------------------------------------------

B-------------------------------------------------------------------------------

G-----6---------------------6---------------------6---------------------6-------

D--6--6------------------6--6------------------6--6------------------6--6--4----

A--6--4----3-4-3---------6--4----3-4-3---------6--4----3-4-3---------6--4--4----

E--4-----4-------4-2-4~--4-----4-------4-2-4~--4-----4-------4-2-4~--4-----2----

Solo

Intro/Intro Verse

Chorus

Play Verse Riff

Get this song at:  amazon.com

Share your thoughts

0 Comments found