Ac Dc

Ac Dc - Rocker bass tab

Artist:AC/DC

Song:Rocker

Album:Dirty Deeds Done Dirt Cheap

Bassist:Mark Evans

Tabber:Sind (Rocklvson)

This is one of my favorite AC/DC songs. I may have tabbed it an octave below.

"I'm a rocker, I'm a roller!"

Intro part 1

G:------------------------------|

D:------------------------------|

A:------------------------------|

E:4-4-64-44-4-64-44-4-64-44-4-64|

Intro part 2

G:--------------|--------------|--------------|--------------|

D:--------------|--------------|--------------|--------------|

A:4-4-64-44-4-64|--------------|1-1-31-11-1-31|--------------|

E:--------------|4-4-64-44-4-64|--------------|4-4-64-44-4-64|

Verse

G:------------------------------------------------------------|

D:------------------------------------------------------------|

A:-------------------------------4-4-64-44-4-64---------------|

E:4-4-64-44-4-64-44-4-64-44-4-64----------------4-4-64-44-4-64|

G:-----------------------------|

D:-----------------------------|

A:1-1-31-11-1-31---------------|

E:---------------4-4-64-44-4-64|

"I got..." part

G:-|R|-|R|-|R|

D:-|E|-|E|-|E|

A:-|S|-|S|-|S|

E:4|T|4|T|4|T|

"I'm a rocker..." part is Intro part 2

Bridge

G:-------------------------------|

D:-------------------------------|

A:------------------------0-1-2-3|

E:4-4-4-4-4-4-4-4-4-4-4-4--------|

Solo

G:-----|-----|

D:Intro|-----|

A:-part|Verse|

E:---2-|-----|

"I got..." part

"I'm a rocker..." part

Solo 2 is the Verse

"I'm a rocker..." part 2 times

Break

After break to End

G:------------------------------|

D:------------------------------|

A:------------------------------|

E:4-4-64-44-4-64-44-4-64-44-4-64|

That's it! I've seen only one tab for this and this one is more accurate. I

think I may have tabbed it an octave below, so if you need to e-mail me at rocklvson@yahoo.com

Get this song at:  amazon.com sheetmusicplus.com

Share your thoughts

0 Comments found