Ac Dc

Ac Dc - Rock Your Heart Out bass tab

e]-----------5--5----------5--5-

a]---777-7-5---5---777-7-5---5--

d]------------------------------

g]------------------------------

e]-----------5--5----------5--5-

a]---777-7-5---5---777-7-5---5--

d]------------------------------

g]------------------------------

its not much but this is the whole song just play it over and over

Get this song at:  amazon.com

Share your thoughts

0 Comments found