Ac Dc

Ac Dc - Rock N Roll Singer Intro guitar tab

AC/DC

"Rock and Roll Singer" introduction

High Voltage

ATCO

submitted by fenderstrat81

E-------------------------------------------------------------------

B--------------------------------------------------3---3------------

G-----2---2------------5-----2-----5-----2---------2---2------------

D-----2---2------------5-----2-----5-----2---------0---0------------

A-----0---0------------3-----0-----3-----0--------------------------

E-------------------------------------------------------------------

E-------------------------------------------------------------------

B--------------------------------------------------3---3------------

G-----2---2------------5-----2-----5-----2---------2---2------------

D-----2---2------------5-----2-----5-----2---------0---0------------

A-----0---0------------3-----0-----3-----0--------------------------

E-------------------------------------------------------------------

Get this song at:  amazon.com sheetmusicplus.com

Share your thoughts

0 Comments found