Ac Dc

Ac Dc - Rock N Roll Singer bass tab

intro

G|----------------------------------------|

D|----------------------------------------|

A|----------------------------------------|

E|--777-7-5-7-5-000-----------------------|

verse

G|----------------------------------------|

D|----------------------------------------|

A|----------------------------5-7---------|

E|-7-5-77----75-77----75-77-------75-77---|

chorus

G|----------------------------------------|

D|----------------------------------------|

A|------7-5---------7-5------7-5-----7-7-7|

E|--7-5--------7-5-------7-5-----7-5------|

I think this come in here somewhere

G|----------------------------------------|

D|----------------------------------------|

A|--7-7-7-7-7-7-7-7-7-7-7-7-7-7-7-7-7-7-7-|

E|----------------------------------------|

Brought to you by the BassMasta - http://www.tabs-database.com

Get this song at:  amazon.com

Share your thoughts

0 Comments found