Ac Dc

Ac Dc - Rock N Roll Damnation bass tab

Intro:

G:-----------------

D:-----------------(x4)

A:-----------------

E:-5-5-5-5-5-5-5-5-

Verse/During Guitar Solo:

G:-------------------------

D:-------------------------

A:-------------------------

E:-5-5-5-5-5-5-5-5-5-0-3-0-

Chorus:

G:-------------------------------

D:-------------------------------(x3)

A:---------5-5-5-----------------

E:-3-3-3-3-------5-5-5-5-5-0-3-0-

G:-------------------------------

D:-------------------------------

A:-5-5-5-5-5-5-5-7-7-7-7-7-7-7-7-

E:-------------------------------

Tell me if you think it's wrong. Thanks!

Get this song at:  amazon.com

Share your thoughts

0 Comments found