Ac Dc

Ac Dc - Rising Power guitar tab

Rising Power

Intro + verse:

E|--------------------|----------------------|------------------------|

B|--------------------|----------------------|------------------------|

G|--------------------|--4---------4--4------|--2--2-----4------------|

D|----------------x-x-|--4---------4--4------|--2--2--5--4--------x-x-|

A|----------------5p2-|--2------5--2--2------|--0--0--5--2--------5p2-|

E|--------------------|----------------------|--------3---------------|

|----------------------|------------------------|----------------------|

|----------------------|------------------------|----------------------|

|--4---------4--4------|--2--2-----4------------|--4---------4--4------|

|--4---------4--4------|--2--2--5--4--------x-x-|--4---------4--4------|

|--2------5--2--2------|--0--0--5--2--------5p2-|--2------5--2--2------|

|----------------------|--------3---------------|----------------------|

need no excuse...

|------------------------|----------------------|----------------------|

|------------------------|----------------------|----------------------|

|--2--2-----4------------|--4---------4--4------|--2--2-----4----------|

|--2--2--5--4--------x-x-|--4---------4--4------|--2--2--5--4----------|

|--0--0--5--2--------5p2-|--2------5--2--2------|--0--0--5--2----------|

|--------3---------------|----------------------|--------3-------------|

|----------------------|---------------------|--------------------------|

|----------------------|---------------------|--------------------------|

|--2--2-----2----------|---------------------|--------------------------|

|--2--2--5--2----------|--2----2--2----------|--2--2--2--2--2--2--2--2--|

|--0--0--5--0----------|--2----2--2----------|--2--2--2--2--2--2--2--2--|

|--------3-------------|--0----0--0----------|--0--0--0--0--0--0--0--0--|

rising power we raise... rising power

|-----------------------|--------------------|-----------------------|

|-----------------------|--------------------|-----------------------|

|--4----2--7------------|----2---------------|--4----2--7------------|

|--4----2--7------7--5--|----2--2------------|--4----2--7------7--5--|

|--2----0--5------7--5--|----0--2------------|--2----0--5------7--5--|

|-----------------5--3--|-------0------------|-----------------5--3--|

rising power we'll raise...

|--------------------|-----------------------|--------------------|

|--------------------|-----------------------|--------------------|

|-------7------------|--4----2--7------------|----2---------------|

|----7--7------------|--4----2--7------7--5--|----2--2------------|

|----7--5------------|--2----0--5------7--5--|----0--2------------|

|----5---------------|-----------------5--3--|-------0------------|

rising power to verse: with solo:

|-----------------------|----------------------|----------------------|

|-----------------------|----------------------|----------------------|

|--4----2--7------------|-------7--------------|--4---------4--4------|

|--4----2--7------7--5--|----7--7--------------|--4---------4--4------|

|--2----0--5------7--5--|----7--5----------5p2-|--2------5--2--2------|

|-----------------5--3--|----5-----------------|----------------------|

|------------------------|----------------------|---------------------------|

|------------------------|----------------------|---------------------------|

|--2--2-----4------------|--4---------4--4------|----4-4-4---------2-2-2----|

|--2--2--5--4--------x-x-|--4---------4--4------|----4-4-4--5-5-5--2-2-2----|

|--0--0--5--2--------5p2-|--2------5--2--2------|----2-2-2--5-5-5--0-0-0----|

|--------3---------------|----------------------|-----------3-3-3-----------|

|----------------------|--------------------------|----------------------|

|----------------------|--------------------------|----------------------|

|--4----2--7-----------|----4-4-4---------2--2----|--4----2--7-----------|

|--4----2--7----7------|----4-4-4--5-5-5--2--2----|--4----2--7----7------|

|--2----0--5----7------|----2-2-2--5-5-5--0--0----|--2----0--5----7------|

|---------------5------|-----------3-3-3----------|---------------5------|

|--------------------------|----------------------|--------------------------|

|--------------------------|----------------------|--------------------------|

|----4-4-4---------2--2----|--4----2--7-----------|----4-4-4---------2--2----|

|----4-4-4--5-5-5--2--2----|--4----2--7----7------|----4-4-4--5-5-5--2--2----|

|----2-2-2--5-5-5--0--0----|--2----0--5----7------|----2-2-2--5-5-5--0--0----|

|-----------3-3-3----------|---------------5------|-----------3-3-3----------|

need no excuse... to chorus:

|----------------------|-------------------------|----------------------|

|----------------------|-------------------------|----------------------|

|--4----2--7-----------|----4-4-4--------2--2----|--2--2-----2----------|

|--4----2--7----7------|----4-4-4--5--5--2--2----|--2--2--5--2----------|

|--2----0--5----7------|----2-2-2--5--5--0--0----|--0--0--5--0----------|

|---------------5------|-----------3--3----------|--------3-------------|

Tablature by Clemens Fehlow.

Get this song at:  amazon.com

Share your thoughts

0 Comments found