Ac Dc

Ac Dc - Riff Raff guitar tab

Riff Raff

Intro:

E|-------------------|----------------------|-------------------|

B|-------------------|----------------------|-------------------|

G|--------------7----|--7----7----7----7----|--7----------------|

D|--------------4----|--5----4----5----4----|--5----------------|

A|--------------0----|--0----0----0----0----|--0----------------|

E|-------------------|----------------------|-------------------|

|-------------------|----------------------|-------------------|

|-------------------|----------------------|-------------------|

|--------------7----|--7----7----7----7----|------------2------|

|--------------4----|--5----4----5----4----|------------2------|

|--------------0----|--0----0----0----0----|------------0------|

|-------------------|----------------------|-------------------|

|------------------|-------------------|----------------------|

|------------------|-------------------|----------------------|

|------------------|--------------7----|--7----7----7----7----|

|------------------|--------------4----|--5----4----5----4----|

|------------------|--------------0----|--0----0----0----0----|

|------------------|-------------------|----------------------|

|-------------------|-------------------|----------------------|

|-------------------|-------------------|----------------------|

|--7----------------|--------------7----|--7----7----7----7----|

|--5----------------|--------------4----|--5----4----5----4----|

|--0----------------|--------------0----|--0----0----0----0----|

|-------------------|-------------------|----------------------|

|-------------------|------------------|-------------------|

|-------------------|------------------|-------------------|

|----------------2--|------------------|--------------7----|

|----------------2--|------------------|--------------4----|

|----------------0--|------------------|--------------0----|

|-------------------|------------------|-------------------|

|----------------------|-------------------|-------------------|

|----------------------|-------------------|-------------------|

|--7----7----7----7----|--7----------------|--------------7----|

|--5----4----5----4----|--5----------------|--------------4----|

|--0----0----0----0----|--0----------------|--------------0----|

|----------------------|-------------------|-------------------|

|----------------------|-------------------|-------------------|

|----------------------|-------------------|-------------------|

|--7----7----7----7----|--2----------------|--------------7----|

|--5----4----5----4----|--2----------------|--------------4----|

|--0----0----0----0----|--0----------------|--------------0----|

|----------------------|-------------------|-------------------|

|----------------------|-------------------|-------------------|

|----------------------|-------------------|-------------------|

|--7----7----7----7----|--7----------------|--------------7----|

|--5----4----5----4----|--5----------------|--------------4----|

|--0----0----0----0----|--0----------------|--------------0----|

|----------------------|-------------------|-------------------|

|----------------------|-------------------|

|----------------------|-------------------|

|--7----7----7----7----|--2----------------|

|--5----4----5----4----|--2----------------|

|--0----0----0----0----|--0----------------|

|----------------------|-------------------|

theme: (________________________________________________8x)

|---------------------|--------------------------|-------------------------|

|---------------------|--------------------------|-------------------------|

|--------2----2----2--|*-------------------------|-----------2----2----2--*|

|--------2----2----2--|*-------------2--4--------|--5--------2----2----2--*|

|--------0----0----0--|-----0--3--4--------3--0--|-----3--0--0----0----0---|

|---------------------|--------------------------|-------------------------|

|--2------3------2----|

|--3------3------3----|

|--2------0------2----|

|--0------0------0----|

|---------------------|

|---------------------|

|----------------2--|----2--3----3--2------|--3------2----2-------|

|----------------3--|----3--3----3--3------|--3------3----3-------|

|----------------2--|----2--0----0--2------|--0------2----2--2----|

|----------------0--|----0--0----0--0------|--0------0----0--2----|

|-------------------|----------------------|-----------------0----|

|-------------------|----------------------|----------------------|

|-------------------------|------------------------|-------------------------|

|-------------------------|------------------------|-------------------------|

|-------------------------|-----------2----2----2--|-------------------------|

|-------------2--4--------|--5--------2----2----2--|-------------2--4--------|

|----0--3--4--------3--0--|-----3--0--0----0----0--|----0--3--4--------3--0--|

|-------------------------|------------------------|-------------------------|

|------------------------|--2------3------2----|----------------2--|

|------------------------|--3------3------3----|----------------3--|

|-----------2----2----2--|--2------0------2----|----------------2--|

|--5--------2----2----2--|--0------0------0----|----------------0--|

|-----3--0--0----0----0--|---------------------|-------------------|

|------------------------|---------------------|-------------------|

|----2--3----3----2----|----3------2---------|-----------------------|

|----3--3----3----3----|----3------3---------|-----------------------|

|----2--0----0----2----|----0------2---------|-----------------------|

|----0--0----0----0----|----0------0---------|-----------------------|

|----------------------|---------------------|----4--5----4--5----4--|

|----------------------|------------------0--|----0-------0-------0--|

|-----------------------|-----------------------|------------------------|

|-----------------------|-----------------------|------------------------|

|-----------------------|-----------------------|------------------------|

|---------------5--6----|-----------------------|---------------5--6-----|

|--5----4--5------------|----4--5----4--5----4--|--5----4--5----------0--|

|-------0---------------|----0-------0-------0--|-------0----------------|

|-------------------------|------------------------|-------------------------|

|-------------------------|------------------------|-------------------------|

|-------------------------|-----------2----2----2--|-------------------------|

|-------------2--4--------|--5--------2----2----2--|-------------2--4--------|

|----0--3--4--------3--0--|-----3--0--0----0----0--|----0--3--4--------3--0--|

|-------------------------|------------------------|-------------------------|

|------------------------|-------------------------|------------------------|

|------------------------|-------------------------|------------------------|

|-----------2----2----2--|-------------------------|-----------2----2----2--|

|--5--------2----2----2--|-------------2--4--------|--5--------2----2----2--|

|-----3--0--0----0----0--|----0--3--4--------3--0--|-----3--0--0----0----0--|

|------------------------|-------------------------|------------------------|

|-------------------------|------------------------|-------------------|

|-------------------------|------------------------|-------------------|

|-------------------------|-----------2----2----0--|--2----------------|

|-------------2--4--------|--5--------2----2----0--|--2----------------|

|----0--3--4--------3--0--|-----3--0--0----0----0--|--0----------------|

|-------------------------|------------------------|-------------------|

Verse: See it...

|------------------|------------------|-------------------|-------------------|

|------------------|------------------|-------------------|-------------------|

|------------------|------------------|----------------0--|--2----------------|

|------------------|------------------|----------------0--|--2----------------|

|------------------|------------------|----------------0--|--0----------------|

|------------------|------------------|-------------------|-------------------|

heard it...

|-------------------|-------------------|----------------------|

|-------------------|-------------------|----7b8r7-------------|

|----------------0--|--2----------------|----7b8r7----------0--|

|----------------0--|--2----------------|-------------------0--|

|----------------0--|--0----------------|-------------------0--|

|-------------------|-------------------|----------------------|

|-------------------|----------------------|

|-------------------|----7b8r7-------------|

|--2----------------|----7b8r7----------0--|

|--2----------------|-------------------0--|

|--0----------------|-------------------0--|

|-------------------|----------------------|

to chorus:

|------------------------|-----------------------|--2------3------2----|

|-------7b8r7------------|-----------------------|--3------3------3----|

|--2----7b8r7------5-----|-----5-----------2--2--|--2------0------2----|

|--2------------------7--|--7-----7--------2--2--|--0------0------0----|

|--0---------------------|-----------------0--0--|---------------------|

|------------------------|-----------------------|---------------------|

Tablature by Clemens Fehlow.

Published for the first time on AC/DC Tablature page - "http://www.badboyboogie.de".

Get this song at:  amazon.com sheetmusicplus.com

Share your thoughts

0 Comments found