Ac Dc

Ac Dc - Riff Raff bass tab

AC/DC Riff Raff bass tab

Powerage

intro: hit the A string a bunch on the third time the guitar does its thing. listen to

the recording. also, I didn’t count the repeating eighth notes, so listen to the recording

for the changes. At the ends of the choruses, cliff does a couple lines. I didn't tab them

out because they’re improv. Just make up hooks in A major and mess around until they sound

good.

0:45

G|------------|------------|------------|------------|

D|------------|------------|------------|------------|

A|0-0-0-------|0-0-0-------|0-0-0-------|0-0-0-------|

E|------------|------------|------------|------------|

0:56 - main riff

G|-----------------|-----------------|-----------------|-----------------|

D|-----------------|-----------------|-----------------|-----------------|

A|0-0-0--000000000-|0-0-0--000000000-|0-0-0--000000000-|0-0-0--000000000-|

E|-----------------|-----------------|-----------------|-----------------|

1:07 - chorus

G|-----------------|-------------------|

D|000-000-0-000000-|000-000-000-000-00-|

A|-----------------|-------------------|

E|-----------------|-------------------|

1:12 - main riff

G|-----------------|-----------------|

D|-----------------|-----------------|

A|0-0-0--000000000-|0-0-0--000000000-|

E|-----------------|-----------------|

1:17 - chorus

G|-----------------|-------------------|

D|000-000-0-000000-|000-000-000-000-00-|

A|-----------------|-------------------|

E|-----------------|-------------------|

1:22 - bridge

G|----------------|--------------|

D|----------------|--------------|

A|0-45-45-45-45---|0-45-45-45-45-|

E|----------------|--------------|

1:28 - main riff

G|-----------------|-----------------|-----------------|-----------------|

D|-----------------|-----------------|-----------------|-----------------|

A|0-0-0--000000000-|0-0-0--000000000-|0-0-0--000000000-|0-0-0--000000000-|

E|-----------------|-----------------|-----------------|-----------------|

1:38 - verse

G|-----------------------|

D|-----------------------| x 10

A|-----------------------|

E|33-55-33-55-33-5-3-5-5-|

2:04 - chorus

G|-----------------|-------------------|

D|000-000-0-000000-|000-000-000-000----|

A|-----------------|----------------00-|

E|-----------------|-------------------|

2:09 - main riff

G|-----------------|-----------------|

D|-----------------|-----------------|

A|0-0-0--000000000-|0-0-0--000000000-|

E|-----------------|-----------------|

2:15 - chorus

G|-----------------|-------------------|

D|000-000-0-000000-|000-000-000-000-00-|

A|-----------------|-------------------|

E|-----------------|-------------------|

2:20 - bridge

G|----------------|--------------|

D|----------------|--------------|

A|0-45-45-45-45---|0-45-45-45-45-|

E|----------------|--------------|

2:25 - guitar solo

G|-------------|---0-----0----0-|-----------|-----------|---0-----0----0-|

D|-------------|0-----0-----0---|0000000000-|-----------|0-----0-----0---|

A|000000000000-|----------------|-----------|0000000000-|----------------|

E|-------------|----------------|-----------|-----------|----------------|

2:46 - bridge

G|----------------|--------------|----------------|--------------|

D|----------------|--------------|----------------|--------------|

A|0-45-45-45-45---|0-45-45-45-45-|0-45-45-45-45---|0-45-45-45-45-|

E|----------------|--------------|----------------|--------------|

2:57 - more guitar solo

G|-------------|---0-----0----0-|-----------|-----------|---0-----0----0-|

D|-------------|0-----0-----0---|0000000000-|-----------|0-----0-----0---|

A|000000000000-|----------------|-----------|0000000000-|----------------|

E|-------------|----------------|-----------|-----------|----------------|

3:18 - bridge

G|----------------|--------------|----------------|--------------|

D|----------------|--------------|----------------|--------------|

A|0-45-45-45-45---|0-45-45-45-45-|0-45-45-45-45---|0-45-45-45-45-|

E|----------------|--------------|----------------|--------------|

3:28 - end of guitar solo

G|----------|----------|----------|----------|

D|000000000-|000000000-|000000000-|000000000-|

A|----------|----------|----------|----------|

E|----------|----------|----------|----------|

3:36 - guitar thing

G|---------|---------|

D|---------|---------|

A|0--------|0--------|

E|---------|---------|

3:41

G|-----------|----------|-----------|-----------|

D|-----------|----------|-----------|-----------|

A|0000000000-|000000000-|0000000000-|0000000000-|

E|-----------|----------|-----------|-----------|

3:52 - verse

G|-----------------------|

D|-----------------------| x 10

A|-----------------------|

E|33-55-33-55-33-5-3-5-5-|

4:17 - chorus

G|-----------------|-------------------|

D|000-000-0-000000-|000-000-000-000----|

A|-----------------|----------------00-|

E|-----------------|-------------------|

4:23 - main riff

G|-----------------|-----------------|

D|-----------------|-----------------|

A|0-0-0--000000000-|0-0-0--000000000-|

E|-----------------|-----------------|

4:28 - chorus

G|-----------------|-------------------|

D|000-000-0-000000-|000-000-000-000-00-|

A|-----------------|-------------------|

E|-----------------|-------------------|

4:33 - bridge

G|----------------|--------------|

D|----------------|--------------|

A|0-45-45-45-45---|0-45-45-45-45-|

E|----------------|--------------|

4:38 - main riff

G|-----------------|-----------------|-----------------|

D|-----------------|-----------------|-----------------|

A|0-0-0--000000000-|0-0-0--000000000-|0-0-0--000000000-|

E|-----------------|-----------------|-----------------|

4:57 - ending

G|

D|

A|0

E|

Get this song at:  amazon.com

Share your thoughts

0 Comments found