Ac Dc

Ac Dc - Ride On Solo guitar tab

Tabbed by:anguslash

Email:tdpsk8@yahoo.com

this is EXACTLY how Angus Young plays it!

Tuning:normal

solo at 1:40 in the song...

e|--12b-12------------15----------------------------------------------------|

B|---------13----pb15------15--13--15----13---------------------------------|

G|------------------------------------14------------------------------------|

D|--------------------------------------------15---13~----------------------|

A|--------------------------------------------------------------------------|

E|--------------------------------------------------------------------------|

song at 3:40 in the song... (the first 20 sec. at least)

e|-12b--12b-----------------------------------------------------------------|

B|----------13-13---------------------------13---15b------------------------|

G|------------------(slide from 11 up to 14)--------------------------------|

D|--------------------------------------------------------------------------|

A|--------------------------------------------------------------------------|

E|--------------------------------------------------------------------------|

e|--------8-----------------------------------------------------------------|

B|---11b----8--11-------8---------------------------------------------------|

G|-----------------10-------10b--8------------------------------------------|

D|----------------------------------10--------------------------------------|

A|--------------------------------------------------------------------------|

E|--------------------------------------------------------------------------|

Get this song at:  amazon.com

Share your thoughts

0 Comments found