Ac Dc

Ac Dc - Put The Finger On You Intro guitar tab

-------------------------------------------------------------------------------

Put The Finger On You - AC/DC

-------------------------------------------------------------------------------

Tabbed by:Mike Pemberton (Cosmicbluibanez)

20.8.2005

Email:mkpod7@aol.com

Tuning:Standard

This is the intro only,I'ts quite tricky for a novice but its rewarding to get it

right. As always listen to the song for timing,Its in the 'For Those About To Rock'

Album.

USE FINGER PICKING!!

Personally i use my thumb for the open A string,1st finger for the G string and the

2nd finger for the B string.

e|---------------------------------------------------------------------------|

B|---10--10--10--10--10--8--8--7--------------7--7--7--7--7--7---------------|

G|---9---9---9---9---9---7--7--7--------------7--7--7--7--7--7---------------|

D|---------------------------------------------------------------------------|

A|---0---0---0---0---0---0--0--0--------------0--0--0--0--0--0---------------|

E|---------------------------------------------------------------------------|

REPEAT

Another way that i have seen it played(In a book where there are mistakes)is like

this,But i think in a 1 guitar situation because of the slightly harder G,B,e

freting it becomes harder to maintain the constant open A notes when using

fingerpicking.(Well it is for me!) Maybe this could be used in a 2 guitar

situation with the 2nd guitar just playing the open A or maybe an A5?.

e|------------------3--3--2--------------2--2--2--2--2--2--------------------|

B|---5--5--5--5--5--3--3--3--------------3--3--3--3--3--3--------------------|

G|---2--2--2--2--2-----------------------------------------------------------|

D|---------------------------------------------------------------------------|

A|---0--0--0--0--0--0--0--0--------------0--0--0--0--0--0--------------------|

E|---------------------------------------------------------------------------|

REPEAT

Get this song at:  amazon.com sheetmusicplus.com

Share your thoughts

0 Comments found