Ac Dc

Ac Dc - Overdose Solo guitar tab

Standard Tuning

e -------------------------------------------------------------------|

b -------------------------------------------------------------------|

g -------------------------------------------------------------------|

D --7-9---------7---------7-9-7---6-7-6-4-6-4--2-------2-4-4-2-4-4---|

A -------------------------------------------------------------------|

E -------------------------------------------------------------------|

e--------------------------------------------2---------------------------------|

b----------------------------2--3--5--3---5------3---5----(6)-----5----5----7--|

g----------1----2-----1--2-4---------------------------------------------------|

D--4---2-4---------------------------------------------------------------------|

A------------------------------------------------------------------------------|

E------------------------------------------------------------------------------|

e -------------------------------------------------------------------|

b -------------------------------------------------------------------|

g -------------------------------------------------------------------|

D --7-9------------------7-7--7-9-----------7-9------7-7--9----7-7-9-|

A -------------------------------------------------------------------|

E -------------------------------------------------------------------|

e -------------------------------------------------------------------|

b -------------------------------------------------------------------|

g ----------------------------7-(8)---------7---------7--------------|

D --7-7-9--------7-7-9--------------9-7-9------9-7-9----9-9-7-9------|

A -------------------------------------------------------------------|

E -------------------------------------------------------------------|

e -------------------------------------------------------7------------|

b -------------------------------7-6-----------------------10--7----7-|

g 9---11---9--9-7--------9--11-------9-7-9-7---9------------------9---|

D ---------------9---------------------------9---9--------------------|

A --------------------------------------------------------------------|

E --------------------------------------------------------------------|

e --------------7------------------------------7----------------------|

b ------------7---7--10-(12)--10-(12)--10-(11)---(11)-10-7---10--(12--|

g -7--9--(11)----------------------------------------------9----------|

D --------------------------------------------------------------------|

A --------------------------------------------------------------------|

E --------------------------------------------------------------------|

e -7----------------7----------------7------------7-------------7-----|

b ---10-7-10---(12)---10-7-10---(12)---10-7--10-12--10-7--10-12--10-7-|

g --------------------------------------------------------------------|

D --------------------------------------------------------------------|

A --------------------------------------------------------------------|

E --------------------------------------------------------------------|

e------7-----------7-----------7-----------7-----------7-----------7------|

b-10-12--10-7-10-12--10-7-10-12--10-7-10-12--10-7-10-12--10-7-10-12--10-7-|

g ------------------------------------------------------------------------|

D ------------------------------------------------------------------------|

A ------------------------------------------------------------------------|

E ------------------------------------------------------------------------|

e------7--------------------------------------------------22b24b25---|

b-10b12--10-7-10--b---12----22b(24)---22b(24)------\-----------------|

g -------------------------------------------------------------------|

D -------------------------------------------------------------------|

A -------------------------------------------------------------------|

E -------------------------------------------------------------------|

e -22b24--22-19------------------------------------------------------|

b --------------22-19-22----19---------------------------------------|

g -----------------------21----21-22-19----21----19----20------------|

D --------------------------------------21----21-----------21---21~~-|

A -------------------------------------------------------------------|

E -------------------------------------------------------------------|

e ----------------------------19-------------------------------------|

b -----------------22--b--24------22-19-22-19-19-19------------------|

g ------x--x---x------------------------------------22-21-19-21b23---|

D -\-----------------------------------------------------------------|

A -------------------------------------------------------------------|

E -------------------------------------------------------------------|

e -------------------------22-b-25--22b24--22--21-19------------------|

b -19-22-19----19-----------------------------------22-21-19----19----|

g ----------22----22-21-19-----------------------------------21----22-|

D --------------------------------------------------------------------|

A --------------------------------------------------------------------|

E --------------------------------------------------------------------|

e ---------------------------------------------------------------------|

b ---------------------------------------------------------------------|

g 21-19----------------------------x-16-16-16\----16----\--/15-15---16-|

D ------2119-----------------------------------------------------------|

A ----------21\-19-17-19-17~~~~~~--------------------------------------|

E ---------------------------------------------------------------------|

e -------------------------------------------------------7----7-10-7-|

b ------------------------19b22--19--19-17-----------------10--------|

g -16---16--16-16-\--x--x-----------------19-19-18-16-\--------------|

D -------------------------------------------------------------------|

A -------------------------------------------------------------------|

E -------------------------------------------------------------------|

e -----7---------------------------------5-/7-10-7----9--------7-\---|

b 10-7---7-------------------3-5-3-7-5-7-----------7----7-9-10-------|

g ---------9-7---9-7-------4-----------------------------------------|

D -------------9-----------------------------------------------------|

A -------------------------------------------------------------------|

E -------------------------------------------------------------------|

e -----x----22-19----22-19----22-19----22-19----------19----------19-|

b -x-x---19-------19-------19-------19-------19-22-19----19-22-19----|

g -------------------------------------------------------------------|

D -------------------------------------------------------------------|

A -------------------------------------------------------------------|

E -------------------------------------------------------------------|

e ---22-19----------19----19----------------|

b 19-------19-19-22----19----22b24----------|

g ------------------------------------------|

D ------------------------------------------|

A ------------------------------------------|

E ------------------------------------------|

Notation used:

b-bend

x-muted note

/-slide

~-vibrato

(8)-ghost note

Get this song at:  amazon.com sheetmusicplus.com

Share your thoughts

0 Comments found