Ac Dc

Ac Dc - Night Prowler bass tab

Intro(After Guitar)

G-----------------------------------------------------------------------------------------------

D-----------------------------------------------------------------------------------------------

A----------4----------------4r~-----------------------------------------------------------------

E---4-------------7--7--------------------------------------------------------------------------

Rift

G--------------------------------------------------------------------------------

D-------------------------------------------------------------------------------- Repeat 16x

A-------------4-4-4-4------------------4-4-4-4-----------------------------------

E--4-4-4-4----------------7-7-7-7------------------------------------------------

Chorus

G------------------------------------------------------------------------------------------------

D------------------------------------------------------------------------------------------------

A----------4-4------------4-4--------------------------------------------------------------------

E---4--4------------7-7--------------------------------------------------------------------------

Outro

G-------------------------------------------------------------------------------------------------

D-------------------------------------------------------------------------------------------------

A---------------------4-4-4-4-4-4-----------------------------------------------------------------

E-----7-7-7-7-7-7---------------------------------------------------------------------------------

Brought to you by the BassMasta - http://www.tabs-database.com

Get this song at:  amazon.com

Share your thoughts

0 Comments found