Ac Dc

Ac Dc - Money Talks guitar tab

#

Artist: AC DC

Song title: Money Talks

Here is "Money Talks" by "AC DC". Listen to the song for timing, and

send any questions or comments to Wes Fortier (Thonks@aol.com). If

anyone can figure out the solo, please post it. ENJOY!!!

(opening riff)

E :----------------|---------------|----------------|-----------------|

B :----------------|---------------|----------------|-----------------|

G :-16-14-16-14-17-|16-14-12-14-12-|-16-14-16-14-17-|16-14-12-12-14-12|

D :-12-12-12-12-12-|12-12-12-12-12-|-12-12-12-12-12-|12-12-12-12-12-12|

A :----------------|---------------|----------------|-----------------|

E :----------------|---------------|----------------|-----------------|

E :----------------|---------------|----------------|-----------------|

B :----------------|---------------|----------------|-----------------|

G :-16-14-16-14-17-|16-14-12-14-12-|-16-14-16-14-17-|-----------------|

D :-12-12-12-12-12-|12-12-12-12-12-|-12-12-12-12-12-|-----------------|

A :----------------|---------------|----------------|-----------------|

E :----------------|---------------|----------------|-----------------|

(verse riff) 12x 4x 4x

E :----------------|----------------|----------------|----------------|

B :----------------|----------------|----------------|Then-Repeat-----|

G :----------------|-7-7------------|-5-5------------|From-Beginning--|

D :-5-5------------|-7-7------------|-5-5------------|----------------|

A :-5-5------------|-5-5-5-5-9-5----|-3-3-3-3-7-3----|----------------|

E :-3-3-3-3-7-3----|----------------|----------------|----------------|

Pre Solo 2x 3x

E :----------------|----------------|----------------|----------------|

B :----------------|Then-Play-------|Then-opening----|----------------|

G :-7--7--7--7--7--|verse-riff------|riff-6x---------|----------------|

D :-7--7--7--7--7--|----------------|----------------|-5-5------------|

A :-5--5--5--5--5--|----------------|----------------|-5-5------------|

E :----------------|----------------|----------------|-3-3-3-3-7-3----|

hold

E :----------------|----------------|----------------|----------------|

B :----------------|----------------|----------------|----------------|

G :----------------|----------------|----------------|----------------|

D :-5--------------|-5--------------|----------------|----------------|

A :-5--------------|-5--------------|----------------|----------------|

E :-3--------------|-3--------------|----------------|----------------|

Get this song at:  amazon.com sheetmusicplus.com

Share your thoughts

0 Comments found