Ac Dc

Ac Dc - Love Hungry Man guitar tab

Love Hungry Man

Intro + Verse + Chorus:

E|--2----------------|--2--------3--------|-------------------|

B|--3----------------|--3--------3--------|--2----------------|

G|--2----------------|--2--------0--------|--2----------------|

D|--0----------------|--4--------0--------|--2----------------|

A|-------------------|--------------------|--0----------------|

E|-------------------|--------------------|-------------------|

|------------------|--2----------------|--2--------3--------|-------------------|

|------------------|--3----------------|--3--------3--------|--2----------------|

|------------------|--2----------------|--2--------0--------|--2----------------|

|------------------|--0----------------|--4--------0--------|--2----------------|

|------------------|-------------------|--------------------|--0----------------|

|------------------|-------------------|--------------------|-------------------|

I don't no what your name is...

|------------------|-------------------|------------------|-------------------|

|------------------|-------------------|------------------|-------------------|

|------------------|--2----------------|------------------|--2----------------|

|------------------|--2----------------|------------------|--2----------------|

|------------------|--0----------------|------------------|--0----------------|

|------------------|-------------------|------------------|-------------------|

to chorus:

|------------------|-------------------|------------------|-------------------|

|------------------|-------------------|------------------|-------------------|

|------------------|--2----------------|------------------|--2----------------|

|------------------|--2----------------|------------------|--2----------------|

|------------------|--0----------------|------------------|--0----------------|

|------------------|-------------------|------------------|-------------------|

Bridge: don't want no conversation

|------------------|----------------------|----------------------|

|------------------|----------------------|----------------------|

|------------------|----------------------|----------------------|

|------------------|--7--7----5--7--------|--7--7----5--7--------|

|------------------|--7--7----5--7--------|--7--7----5--7--------|

|------------------|--5--5----3--5--------|--5--5----3--5--------|

Tablature by Clemens Fehlow.

Get this song at:  amazon.com sheetmusicplus.com

Share your thoughts

0 Comments found