Ac Dc

Ac Dc - Love Hungry Man bass tab

Intro:

G:--------------------

D:--------------------

A:----5---------------

E:--------2--3--5-----

Verse:

G:------------------------------------------

D:---------------2-2-0----------------------

A:----5----------------3-2-0-----0-0---0----

E:--------2--3-----------------3-----3------

Verse Two:

G:--------------------

D:--------------------

A:--------------------

E:------3-5-5-3-5-----

Chorus:

G:------------------------------------------

D:---------------2-2-0----------------------

A:----5----------------3-2-0-----0-0---0----

E:--------2--3-----------------3-----3------

Solo:

G:---------------------------------------------

D:-------4-5-4---4-5-4-------------------------

A:----5--------5-------------------------------

E:---------------------5-5-3-5---3-5-5-3-5-----

G:--------------------------------------------

D:-------2-3-2--------------------------------

A:----3------------2-3-2----------------------

E:--------------3---------5-5-3-5--3-5-5-3-5--

G:-------------------------------------------------------------------------

D:-------2-3-2-------------------------------------------14-14-12-14-------

A:----3------------2-3-2---------------------------------------------------

E:--------------3---------5-5-3-5--3-5-5-3-5--3-5-5-3-5--------------------

Tell me if you think it's wrong. Thanks!

Get this song at:  amazon.com

Share your thoughts

0 Comments found