Ac Dc

Ac Dc - Love Bomb guitar tab

Auther/Artist:AC/DC

Title:Love Bomb

Transcribed by:Justin Harmon

Email:womenarenice@hotmail.com

Intro:Guitar 1

E--3-------------------3------------------

B--3---3---------------3---3--------------

G--0---2---2---4-------0---2---2----------

D--0---0---2---4-------0---0---2---2------

A--x-------0---2-------x-------0---2------

E--3-------------------3-----------0------

Intro:Guitar 2

E----------------------------------------------

B--12b--10~------7~-----12b--10~---------------

G------------9---------------------9--9~-------

D----------------------------------------------

A----------------------------------------------

E----------------------------------------------

Verse 1:(Play 4x)

E-----------------------------

B-----------------------------

G--2--4--4--2--2--4-----------

D--2--4--4--2--2--4-----------

A--0--2--2--0--0--2-----------

E-----------------------------

Pre-Chorus 1:Guitar 1

E---------------------------------------------------------------------------

B--------3-------------------3----------------------------------------------

G-----2--2--2-----4-------2--2--2-----2-2-2-------2-2-2-------4-4-4-----4---

D--4--2--0--2--2--4----4--2--0--2--2--2-2-2-2-2-2-2-2-2-2-2-2-4-4-4--2--4---

A--4--0-----0--2--2----4--0-----0--2--0-0-0-2-2-2-0-0-0-2-2-2-2-2-2--2--2---

E--2-----------0-------2-----------0--------0-0-0-------0-0-0--------0------

Pre-Chorus 1:Guitar 2

E----------------------------------------------------------------------------

B--------3-------------------3---------------------------------------9-------

G-----2--2--2-----4-------2--2--2-----2-2-2-------2-2-2-------4-4-4----9-----

D--4--2--0--2--2--4----4--2--0--2--2--2-2-2-2-2-2-2-2-2-2-2-2-4-4-4------9---

A--4--0-----0--2--2----4--0-----0--2--0-0-0-2-2-2-0-0-0-2-2-2-2-2-2----------

E--2-----------0-------2-----------0--------0-0-0-------0-0-0----------------

Verse 2:

E--------------------------------------------------

B--------------------------------------------------

G--2-4-4-2-2-4-----2-4-4-2-2-4--2-4-4-2-2-4--------

D--2-4-4-2-2-4--2--2-4-4-2-2-4--2-4-4-2-2-4--2-----

A--0-2-2-0-0-2--2--0-2-2-0-0-2--0-2-2-0-0-2--2-----

E---------------0----------------------------0-----

Pre-Chorus 2:

E-----------------------------------------------------------------------

B--------3-------------------3------------------------------------------

G-----2--2--2-----4-------2--2--2-----2-2-2-------2-2-2-------4-4-4-----

D--4--2--0--2--2--4----4--2--0--2--2--2-2-2-2-2-2-2-2-2-2-2-2-4-4-4-----

A--4--0-----0--2--2----4--0-----0--2--0-0-0-2-2-2-0-0-0-2-2-2-2-2-2-----

E--2-----------0-------2-----------0--------0-0-0-------0-0-0-----------

Chorus:

E---------3----------------------------

B---------3--3-------------3-----------

G-----4---0--2--2------4---2--2--------

D--2--4---0--0--2---2--4---0--2--2-----

A--2--2---x-----0---2--2------0--2-----

E--0------3---------0------------0-----

Get this song at:  amazon.com

Share your thoughts

0 Comments found