Ac Dc

Ac Dc - Lets Make It guitar tab

Lets Make It by Ac(lightning bolt)Dc

(standard tuning)

b bed

/ slide up

\\ slide down

r release bend

h hammer-on

p pull-off

Intro

|-----------------------------------------------------|

|-----------------------------------------------------|

|---2-1---5-4-----------7-6-----2-1---5-4-------------|

|--------------7--5-4----------------------7--5-4-----|

|-2-----5------5------7-------2-----5------5------7---|

|-0-----3-------------5-------0-----3-------------5---|

|-----------------------------------------------------|

|-----------------------------------------------------|

|-----------------------------------------------------|

|-------------------5-----5-----5-------5-------------|

|-7-7-7-7-7-7-7-7---3-3---3-5---3-3-5---3-2-5---3-2-5-|

|-5-5-5-5-5-5-5-5-----1-----3-----1-3-----0-3---1-0-3-|

Verse

|-----------------------------------------------------------|

|-----------------------------------------------------------|

|-----------------------------------------------------------|

|-5-----5-----5---------------5-------5-------5-------------|

|-3-3---3-5---3-3-5---3-2-5---3-3-5---3-3-5---3-3-5---3-2-5-|

|---1-----3-----1-3---1-0-3-----1-3-----1-5-----1-3---1-0-3-|

Chorus

|---------|

|---------|

|---------|

|-7-------|

|-5-5-7-7-|

|---3-5-5-|

8 times

|-----------------------------------------------------|

|-----------------------------------------------------|

|---2-1---5-4-----------7-6-----2-1---5-4-------------|

|--------------7--5-4----------------------7--5-4-----|

|-2-----5------5------7-------2-----5------5------7---|

|-0-----3-------------5-------0-----3-------------5---|

Solo (2:10)

|----------------------------------------------------------|

|--10b(12)r-----------------------------11-----------------|

|--10b(12)r-10------8b--------------------8-10b--8---------|

|-------------10-10-----8-8-8b-10-10-10------------10------|

|----------------------------------------------------8-10--|

|--------------------------------------------------------8-|

|------------------------------------------------------------|

|----------8-----------11b(13)--11b(13)--11b(13)-------------|

|--8-10-----10-8b-------------------------------12-----------|

|------10--------10-------------------------------13-10--10\\-|

|------------------------------------------------------------|

|------------------------------------------------------------|

|------12b(14)--12b(14)---16b(17)--15-13---------------|

|-10-13----------------13---------------16-13-16b-13\\--|

|------------------------------------------------------|

|------------------------------------------------------|

|------------------------------------------------------|

|------------------------------------------------------|

Added by tabs-database.com and our distinguished partners

Get this song at:  amazon.com sheetmusicplus.com

Share your thoughts

0 Comments found