Ac Dc

Ac Dc - Lets Get It Up bass tab

Standard Tuning

(Intro)

G:----------|----------|----------|----------|

D:----------|----------|----------|----------|

A:4---4---5-|4--4--5--0|4---4---5-|0---4---5-|

E:----------|----------|----------|----------|

G:----------|----------|----------|----------|

D:----------|----------|----------|----------|

A:4--4--5--0|4---4---5-|----5-4-0-|4--4--5--0|

E:----------|----------|0-4-------|----------|

G:----------|----------|----------|----------|

D:--------2-|----------|--------2-|----------| x2

A:0---2-----|0---2---2-|0---2-----|0---2---2-|

E:----------|----------|----------|----------|

G:----------|----------|----------|----------|

D:----------|----------|----------|----------| x3

A:2--2--2--2|2--2--2--2|----------|0-0-0-0--2|

E:----------|----------|0--0--0--0|----------|

G:----------|----------|----------|----------|----------|----------|

D:----------|----------|----------|----------|----------|----------|

A:2--2--2--2|2--2--2--2|0--0--0--0|0--0--0--0|0--0--0--0|0--0--0--0|

E:----------|----------|----------|----------|----------|----------|

G:----------|----------|----------|----------|----------|

D:----------|----------|----------|----------|----------|

A:4---4---5-|4--4--5--0|4---4---5-|----5-4-0-|4--4--5--0|

E:----------|----------|----------|0-4-------|----------|

G:----------|----------|----------|----------|

D:--------2-|----------|--------2-|----------| x2

A:0---2-----|0---2---2-|0---2-----|0---2---2-|

E:----------|----------|----------|----------|

G:----------|----------|----------|----------|

D:----------|----------|----------|----------| x3

A:2--2--2--2|2--2--2--2|----------|0-0-0-0--2|

E:----------|----------|0--0--0--0|----------|

G:----------|--------0-|2--2--2--2|2--2--2--2|2--2--2--2|----------|

D:----------|----2-----|----------|----------|----------|0---------|

A:2--2--2--2|2---------|----------|----------|----------|---4--2--0|

E:----------|----------|----------|----------|----------|----------|

G:----------|----------|----------|----------|----------|

D:----------|----------|----------|----------|----------|

A:4---4---5-|4--4--5--0|4---4---5-|----5-4-0-|4--4--5--0|

E:----------|----------|----------|0-4-------|----------|

G:----------|----------|----------|----------|

D:----------|0-0-0-0---|----------|0-0-0-0---|

A:----------|---------0|----------|---------0|

E:0---------|----------|0---------|----------|

G:----------|----------|----------|----------|

D:----------|----------|----------|0--0--0--0| x4

A:0---2-----|2--2--2--2|0---2-----|----------|

E:--------0-|----------|--------0-|----------|

G:----------|----------|----------|----------|

D:----------|----------|----------|----------|

A:4---4---5-|4--4--5--0|4--4--5--0|----------|

E:----------|----------|----------|5--5--4--0|

G:----------|----------|----------|1--2--2---|

D:----------|----------|----------|---------0|

A:4---4---5-|----5-4-0-|4--4--5--0|----------|

E:----------|0-4-------|----------|----------|

G:----------|----------|----------|----------|

D:----------|----------|----------|----------|

A:4---4---5-|4--4--5--0|4--4--5--0|----------|

E:----------|----------|----------|5--5--4--0|

G:----------|----------|----------|----------|

D:----------|----------|----------|----------|

A:4---4---5-|----5-4-0-|4--4--5--0|----------|

E:----------|0-4-------|----------|----------|

G:----------|----------|----------|----------|

D:----------|----------|----------|----------|

A:0-----0--0|0-----0--0|0-----0--0|0-----0--0|

E:----------|----------|----------|----------|

(Outro)

G:----------|----------|----------|----------|

D:----------|----------|----------|----------|

A:4---4---5~|----------|----------|----------|

E:----------|----------|----------|----------|

Get this song at:  amazon.com

Share your thoughts

0 Comments found