Ac Dc

Ac Dc - Let There Be Rock bass tab

Band : AC/DC

Song : Let There Be Rock

Tabber : S3B (pascalherblot@wanadoo.fr)

Tunning : Standard (EADG)

x3

G|---|------------------|-----------------|-----------------|------------------|

D|---|*-----------------|-----------------|-----------------|-----------------*|

A|---|*-----------------|-----------------|-----------------|-----------------*|

E|-3-|--0-0-0-0-0-0-0-3-|-0-0-0-0-0-0-0-3-|-R-0-0-5-R-0-0-3-|-0-0-0-0-0-0-0-3--|

x29

G|-------------------|

D|*-----------------*|

A|*-----------------*|

E|--0-0-0-0-0-0-0-3--|

x15

G|---|-------------------|-----------------|

D|---|*-----------------*|-----------------|

A|-3-|*-0-0-0-0-0-0-0-3-*|-0-0-0-0-0-0-0-5-|

E|---|-------------------|-----------------|

x3

G|-------------------|-----------------|

D|*-----------------*|-----------------|

A|*-2-2-2-2-2-2-2-5-*|-2-2-2-2-2-2-2-3-|

E|-------------------|-----------------|

G|-----------------|-----------------|

D|-----------------|-----------------|

A|-0-0-0-0-0-0-0-3-|-0-0-0-0-0-0-0-0-|

E|-----------------|-----------------|

G|-----------------|-----------------|-----------------|

D|-----------------|-----------------|-----------------|

A|-0------0-----0--|---0-----0-----0-|--0~~~-----------|

E|-----------------|-----------------|-----------------|

G|---|-----------------|-----------------|-----------------|-----------------|

D|---|-----------------|-----------------|-----------------|-----------------|

A|---|-----------------|-----------------|-----------------|-----------------|

E|-3-|-0-0-0-0-0-0-0-3-|-0-0-0-0-0-0-0-3-|-R-0-0-5-R-0-0-3-|-0-0-0-0-0-0-0-3-|

G|-----------------|-----------------|-----------------|-----------------|

D|-----------------|-----------------|-----------------|-----------------|

A|-----------------|-----------------|-----------------|-----------------|

E|-0-0-0-0-0-0-0-3-|-0-0-0-0-0-0-0-3-|-R-0-0-5-R-0-0-3-|-0-0-0-0-0-0-0-0-|

x29

G|-------------------|

D|*-----------------*|

A|*-----------------*|

E|--0-0-0-0-0-0-0-3--|

x20

G|-------------------|-----------------|

D|*-----------------*|-----------------|

A|*-0-0-0-0-0-0-0-3-*|-0-0-0-0-0-0-0-5-|

E|-------------------|-----------------|

x2

G|-------------------|-----------------|

D|*-----------------*|-----------------|

A|*-2-2-2-2-2-2-2-5-*|-2-2-2-2-2-2-2-3-|

E|-------------------|-----------------|

G|-----------------|-----------------|

D|-----------------|-----------------|

A|-0-0-0-0-0-0-0-3-|-0-0-0-0-0-0-0-0-|

E|-----------------|-----------------|

G|-----------------|-----------------|-----------------|

D|-----------------|-----------------|-----------------|

A|-0------0-----0--|---0-----0-----0-|--0~~~-----------|

E|-----------------|-----------------|-----------------|

G|---|-----------------|-----------------|-----------------|-----------------|

D|---|-----------------|-----------------|-----------------|-----------------|

A|---|-----------------|-----------------|-----------------|-----------------|

E|-3-|-0-0-0-0-0-0-0-3-|-0-0-0-0-0-0-0-3-|-R-0-0-5-R-0-0-3-|-0-0-0-0-0-0-0-3-|

x4

G|------------------|-----------------|-----------------|------------------|

D|*-----------------|-----------------|-----------------|-----------------*|

A|*-----------------|-----------------|-----------------|-----------------*|

E|--0-0-0-0-0-0-0-3-|-0-0-0-0-0-0-0-3-|-R-0-0-5-R-0-0-3-|-0-0-0-0-0-0-0-0--|

x20 x8

G|-------------------|-----------------|-------------------|

D|*-----------------*|-----------------|*-----------------*|

A|*-0-0-0-0-0-0-0-3-*|-0-0-0-0-0-0-0-5-|*-2-2-2-2-2-2-2-5-*|

E|-------------------|-----------------|-------------------|

x32

G|-------------------|

D|*-----------------*|

A|*-2--2---2---2--2-*|

E|-------------------|

x2

G|-------------------|

D|*-----------------*|

A|*-2-2-2-2-2-2-2-2-*|

E|-------------------|

Please rate this tab...

Taken from The BassMasta -- http://www.tabs-database.com

Get this song at:  amazon.com sheetmusicplus.com

Share your thoughts

0 Comments found