Ac Dc

Ac Dc - Let The Be Rock guitar tab

Intro) Riff 1

e |-------------------------------------------------------------------|

B |-------------------------------------------------------------------|

G |----------------------------------------------2--------------------|

D |-0--2-2-------------0--2-2--------------0-2-2-2-2-2-0-2-2----------| 3X

A |-0--2-2-------------0--2-2--------------0-2-2-0-2-2-0-2-2----------|

E |-3--0-0--0-0-0-0-0--3--0-0-0-0-0-0-0----3-0-0---0-0-3-0-0-0-0-0-0-0|

. . . . . . . . . . . . . . .

(Verse)

In the beginning...

...

... LET THERE BE ROCK!!!!

RIFF 2

e |------------------------------------------------------------|

B |------------------------------------------------------------|

G |-2-2--x---x-2-2--x---x-2-2--x---x-2-2--x---x-2-2--x---x-2-2-|

D |-2-2--x---x-2-2--x---x-2-2--x---x-2-2--x---x-2-2--x---x-2-2-|

A |-0-0--x---x-0-0--x---x-0-0--x---x-0-0--x---x-0-0--x---x-0-0-|

E |------------------------------------------------------------|

e |------------------------------------|

B |------------------------------------|

G |-x---x-2-2--x---x-2-2--x---x-2-2--x-|

D |-x---x-2-2--x---x-2-2--x---x-2-2--x-|

A |-x---x-0-0--x---x-0-0--x---x-0-0--x-|

E |------------------------------------|

Solo 1 (Guitar 2 Plays Riff 2)

e |-------------------------------------------------------------|

B |-------------------------------------------------------------|

G |-------------------------------------5--7-7(9)-7-5--7-5~~~~~-|

D |---7---7---7-\-------7---7---7\----7-------------------------|

A |-------------------------------------------------------------|

E |-------------------------------------------------------------|

e |-------------------------------------------------------------|

B |-------------------------------------------------------------|

G |---5-7-7(9)-7-5-7---5-7-7(9)-7---5-5-----5---5-5---5-5---5-5-|

D |-7----------------7------------7-----7-7---7-----7-----7-----|

A |-------------------------------------------------------------|

E |-------------------------------------------------------------|

e |------------------------------------------------------------|

B |------------------------------------------------------------|

G |---5-5---5-5---5---5-5---5-5---5-5---5-5---5-5---5-5---5-5--|

D |-7-----7-----7---7-----7-----7-----7-----7-----7-----7------|

A |------------------------------------------------------------|

E |------------------------------------------------------------|

e |------------------------------------------------------------|

B |------------------------------------------------------------|

G |---5-5---5-5---7---7-7---7-7---7-7---7-7---7---7-7---7-7----|

D |-7-----7-----7---9-----9-----9-----9-----9---9-----9--------|

A |------------------------------------------------------------|

E |------------------------------------------------------------|

e |--------------------------17--------------------------------|

B |-------------------20(22)----20-17--------------------------|

G |---7-7---7-7---7-------------------17-17----19-17-----------|

D |-9-----9-----9---------------------------19-------19--------|

A |------------------------------------------------------------|

E |------------------------------------------------------------|

e |-5-------5-5-------5-5-------5-5-------5-5-------5-------5~~|

B |---8(10)-----8(10)-----8(10)-----8(10)-----8(10)---8(10)----|

G |------------------------------------------------------------|

D |------------------------------------------------------------|

A |------------------------------------------------------------|

E |------------------------------------------------------------|

e |-12h14p12h14p12h15~~~~~~------------------------------------|

B |------------------------------------------------------------|

G |------------------------------------------------------------|

D |------------------------------------------------------------|

A |------------------------------------------------------------|

E |------------------------------------------------------------|

----- End Solo 1

Riff 1

e |-------------------------------------------------------------------|

B |-------------------------------------------------------------------|

G |----------------------------------------------2--------------------|

D |-0--2-2-------------0--2-2--------------0-2-2-2-2-2-0-2-2----------| 3X

A |-0--2-2-------------0--2-2--------------0-2-2-0-2-2-0-2-2----------|

E |-3--0-0--0-0-0-0-0--3--0-0-0-0-0-0-0----3-0-0---0-0-3-0-0-0-0-0-0-0|

. . . . . . . . . . . . . . .

And it came to pass....

...

LET THERE BE ROCK!!!!

RIFF 2

e |------------------------------------------------------------|

B |------------------------------------------------------------|

G |-2-2--x---x-2-2--x---x-2-2--x---x-2-2--x---x-2-2--x---x-2-2-|

D |-2-2--x---x-2-2--x---x-2-2--x---x-2-2--x---x-2-2--x---x-2-2-|

A |-0-0--x---x-0-0--x---x-0-0--x---x-0-0--x---x-0-0--x---x-0-0-|

E |------------------------------------------------------------|

e |------------------------------------|

B |------------------------------------|

G |-x---x-2-2--x---x-2-2--x---x-2-2--x-|

D |-x---x-2-2--x---x-2-2--x---x-2-2--x-|

A |-x---x-0-0--x---x-0-0--x---x-0-0--x-|

E |------------------------------------|

Solo 2 (Guitar plays Riff 2)

e |------------------------------------------------------------|

B |------------------------------------------------------------|

G |------------------------------------------------------------|

D |--14\-------------------------------------------------------|

A |----------0-0-3-4-0-0-3-4-0-0-3-4-0-0-3-4-0-0-3-4-0-0-3-4---|

E |------------------------------------------------------------|

e |-----------------|------------------------------------------|

B |-----------------|------------------------------------------|

G |-----------------|------------------------------------------|

D |-----------------|--------2-2-4-4-5-5-4-4-2-2---------------|

A |-0-0-3-4-0-0-3-4-|0-0-4-4---------------------4-4-0-0-4-4---|

E |-----------------|------------------------------------------|

e |------------------------------------------------------------|

B |------------------------------------------------------------|

G |------------------------------------------------------------|

D |2-2-4-4-5-5-4-4-2-2-------------4-4-6-6-7-7-6-6-4-4---------|

A |--------------------4-4-2-2-6-6---------------------6-6-2-2-|

E |------------------------------------------------------------|

e |--------------------------------9-9--8-------8-------8------|

B |-------------------------------10------10------10------10---|

G |--------------------------------9---------11------11------11|

D |----4-4-6-6-7-7-6-6-4-4-------------------------------------|

A |6-6---------------------6-6---------------------------------|

E |------------------------------------------------------------|

e |-8-------8-------8-------8-------8-------8-------8-----8----|

B |---10------10------10------10------10------10----------10---|

G |------11------11------11------11------11------11---11-------|

D |------------------------------------------------------------|

A |------------------------------------------------------------|

E |------------------------------------------------------------|

e |-12h14p12h14p12h15~~~~~~------------------------------------|

B |------------------------------------------------------------|

G |------------------------------------------------------------|

D |------------------------------------------------------------|

A |------------------------------------------------------------|

E |------------------------------------------------------------|

---- End Solo 2

Riff 1

e |-------------------------------------------------------------------|

B |-------------------------------------------------------------------|

G |----------------------------------------------2--------------------|

D |-0--2-2-------------0--2-2--------------0-2-2-2-2-2-0-2-2----------| 3X

A |-0--2-2-------------0--2-2--------------0-2-2-0-2-2-0-2-2----------|

E |-3--0-0--0-0-0-0-0--3--0-0-0-0-0-0-0----3-0-0---0-0-3-0-0-0-0-0-0-0|

. . . . . . . . . . . . . . .

One night in the club called the Shakin' hand...

Riff 3

e |----------------------|

B |----------------------|

G |---------2------------|

D |-2-0-2-2-2-2-2-0-2/---| 4x

A |-2-0-2-2-0-2-2-0-2/---|

E |-0-3-0-0---0-0-3-0/---|

RIFF 2

e |------------------------------------------------------------|

B |------------------------------------------------------------|

G |-2-2--x---x-2-2--x---x-2-2--x---x-2-2--x---x-2-2--x---x-2-2-|

D |-2-2--x---x-2-2--x---x-2-2--x---x-2-2--x---x-2-2--x---x-2-2-|

A |-0-0--x---x-0-0--x---x-0-0--x---x-0-0--x---x-0-0--x---x-0-0-|

E |------------------------------------------------------------|

e |------------------------------------|

B |------------------------------------|

G |-x---x-2-2--x---x-2-2--x---x-2-2--x-|

D |-x---x-2-2--x---x-2-2--x---x-2-2--x-|

A |-x---x-0-0--x---x-0-0--x---x-0-0--x-|

E |------------------------------------|

Get this song at:  amazon.com sheetmusicplus.com

Share your thoughts

0 Comments found