Ac Dc

Ac Dc - Let s get it up bass tab

Tabs by :Gaspard Jeanneret

If something wrong tell me at : taxijaune@hotmail.com

-Guitar part first during a moment

Intro

G -----------------------------------------------

D------------------------------------------------

A-----3/7-----4----5-5----4----2------0---------

E--0---------------------------------------------

G------------------------------------------------

D------------------------------------------------

A----3/7-----4-----5-5-----0---------------------

E-0----------------------------------------------

Verse

G------------------------------------------------

D------------------------------------------------

A------------------------------------------------

E-5-----7------0-----5-----7------7--------------(during a long time )

Pre chorus

G------------------------------------------------

D------------------------------------------------

A------------------------------------------------

E-----7-7-7-7-7-7-7-7--0-0-0--5-5-5-5-5-5-5-5----(x2)--7-7-7-7-7-7-7-7-5-5-5-5-5-5-5-5--------

Chorus : same as the verse

Solo :same as the verse

Have fun !!!!!!!!!

Get this song at:  amazon.com

Share your thoughts

0 Comments found