Ac Dc

Ac Dc - Kicked In The Teeth (the Easy Way) guitar tab

Intro:

E|-------------------|---------------------|------------------|

B|-------------------|---------------------|------------------|

G|----------------5--|----2------2------2--|------------------|

D|----------------5--|----2------2------2--|------------------|

A|----------------3--|----0------0------0--|------------------|

E|-------------------|---------------------|------------------|

|-------------------|---------------------|------------------|

|-------------------|---------------------|------------------|

|----------------5--|----2------2------2--|------------------|

|----------------5--|----2------2------2--|------------------|

|----------------3--|----0------0------0--|------------------|

|-------------------|---------------------|------------------|

|--------------------------|-------------------|------------------|

|--------------------------|-------------------|------------------|

|--5-----5--5--5-----5--5--|--5----------------|------------------|

|-----7-----------7--------|-------------------|------------------|

|--------------------------|-------------------|------------------|

|--------------------------|-------------------|------------------|

|-------------------|---------------------|------------------|------------------|

|-------------------|---------------------|------------------|------------------|

|----------------5--|----2------2------2--|------------------|------------------|

|----------------5--|----2------2------2--|------------------|------------------|

|----------------3--|----0------0------0--|------------------|------------------|

|-------------------|---------------------|------------------|------------------|

Verse:

|-------------------|---------------------|---------------------|

|-------------------|---------------------|---------------------|

|----------------5--|----2------2------5--|----2------2------5--|

|----------------5--|----2------2------5--|----2------2------5--|

|----------------3--|----0------0------3--|----0------0------3--|

|-------------------|---------------------|---------------------|

|---------------------|---------------------|---------------------|

|---------------------|---------------------|---------------------|

|----2------2------5--|----2------2------5--|----2------2------5--|

|----2------2------5--|----2------2------5--|----2------2------5--|

|----0------0------3--|----0------0------3--|----0------0------3--|

|---------------------|---------------------|---------------------|

|---------------------|---------------------|---------------------|

|---------------------|---------------------|---------------------|

|----2------2------5--|----2------2------5--|----2------2------2--|

|----2------2------5--|----2------2------5--|----2------2------2--|

|----0------0------3--|----0------0------3--|----0------0------0--|

|---------------------|---------------------|---------------------|

|------------------|-------------------|---------------------|

|------------------|-------------------|---------------------|

|------------------|----------------5--|----2------2------5--|

|------------------|----------------5--|----2------2------5--|

|------------------|----------------3--|----0------0------3--|

|------------------|-------------------|---------------------|

Kicked in the teeth ...

|---------------------|------------------|-------------------|

|---------------------|------------------|--7----------------|

|----2------2------2--|------------------|--7----------------|

|----2------2------2--|------------------|--7----------------|

|----0------0------0--|------------------|--5----------------|

|---------------------|------------------|-------------------|

|---------------------|-------------------|-------------------|

|--------5---------7--|--7----------------|----------------5--|

|--------5----4----7--|--7----------------|----------------5--|

|--------5----5----7--|--7----------------|----------------5--|

|--------3----5----5--|--5----------------|----------------3--|

|-------------3-------|-------------------|-------------------|

|---------------------|---------------------|---------------------|

|---------------------|---------------------|---------------------|

|----2------2------5--|----2------2------5--|----2------2------5--|

|----2------2------5--|----2------2------5--|----2------2------5--|

|----0------0------3--|----0------0------3--|----0------0------3--|

|---------------------|---------------------|---------------------|

|--------------------|-------------------|---------------------|

|--------------------|--7----------------|--------5---------7--|

|----2------2--------|--7----------------|--------5----4----7--|

|----2------2--------|--7----------------|--------5----5----7--|

|----0------0--------|--5----------------|--------3----5----5--|

|--------------------|-------------------|-------------3-------|

|-------------------|------------------------|-----0----0--0----0--0--|

|--7----------------|----7--7----7--7--7-----|-----0----0--0----0--0--|

|--7----------------|----7--7----7--7--7--0--|--1--1----1--1----1--1--|

|--7----------------|----7--7----7--7--7--0--|--1--2----2--2----2--2--|

|--5----------------|----5--5----5--5--5--0--|--2--2----2--2----2--2--|

|-------------------|------------------------|--0--0----0--0----0--0--|

|----0--0----0--0--0----|------------------------|-----------------------|

|----0--0----0--0--0----|--7--7----7--7----7--7--|----5--5----5--5-------|

|----1--1----1--1--1----|--7--7----7--7----7--7--|----5--5----5--5----5--|

|----2--2----2--2--2----|--7--7----7--7----7--7--|----5--5----5--5----5--|

|----2--2----2--2--2----|--5--5----5--5----5--5--|----3--3----3--3----3--|

|----0--0----0--0--0----|------------------------|-----------------------|

Get this song at:  amazon.com sheetmusicplus.com

Share your thoughts

0 Comments found