Ac Dc

Ac Dc - Kicked In The Teeth bass tab

Artist-AC/DC

Song-Kicked in the Teeth

Album-Powerage

intro

G--------------------------|

D--------------------------|

A------------3--0--0--0----|

E--------------------------|

G--------------------------|

D--------------------------|

A------------3--0--0--0----|

E--------------------------|

G--------------------------|

D--------------------------|

A------------3--0--0--0----|

E--------------------------|

G--------------------------|

D--------------------------|

A------------3--0--0--0----|

E--------------------------|

G--------------------------------|

D--------------------------------|keep repeating

A---0-0-0-0-0-0-0-0-0-0-0-0-0-0--|

E--------------------------------|

Chorus

G-------------------------|

D--0-----------0----------|

A--------3-----------3----|

E-----------3-----------3-|

It's really easy but it's still a good song.

Get this song at:  amazon.com sheetmusicplus.com

Share your thoughts

0 Comments found