Ac Dc

Ac Dc - Jailbreak (revised) bass tab

My other tab was kind of long and drawn out so I fixed it.

Intro

G:--------------------------------------

D:--------------------------------------

A:--//5~-------------------------------- x1

E:--------------------------------------

Verse

G:--------------------------------------

D:--------------------------------------

A:---------5--4------------------------- x16

E:--0---0---------0---------------------

Pre-chorus

G:--------------------------------------

D:--------------------------------------

A:-/5~----5--5--5--5-5------5--5--5--5--

E:--------------------------------------

G:--------------------------------------

D:--------------------------------------

A:--7~----7--7--7--7-7------5--5--5--5-- x1

E:--------------------------------------

Chorus

G:--------------------------------------

D:--------------------------------------

A:---------5--4------------------------- x16

E:--0---0---------0---------------------

Bass fill/solo

G:--------------------------------------

D:--------------------------------------

A:-------------------------------------- x11

E:--10-----10-----10--------------------

Guitar solo 1

G:--------------------------------------

D:--------------------------------------

A:--5~----5--5--5--5-5------5--5--5--5--

E:--------------------------------------

G:--------------------------------------

D:--------------------------------------

A:--7~----7--7--7--7-7------5--5--5--5-- x2

E:--------------------------------------

Outro (guitar solo 2)

G:--------------------------------------

D:--------------------------------------

A:---------5--4------------------------- x23

E:--0---0---------0---------------------

Get this song at:  amazon.com

Share your thoughts

0 Comments found