Ac Dc

Ac Dc - It\'s A Long Way To The Top guitar tab

normal tuning.

key

bend: ^

pull off: p

hammer on: h

down strum: D

up strum: U

virbrato: v

mute: .

let ring: ~

main riff:

U U D

e--------------------------------------------------------------

B--------------------------------------------------------------

G--1--h3--3-.-3-------------------------------------------------

D--1--h3--3-.-3-------------------------------------------------

A--1------1-.-1-------------------------------------------------

E--------------------------------------------------------------

angus fills in

e-------------------------------------------------------------

B-------------------------------------------------------------

G----------------1---3~~~~~~~~~------------------------------------------

D----------------1---3~~~~~~~~~------------------------------------------

A-------------1h3----1~~~~~~~~~--------------------------------------------

E-------------------------------------------------------------

angus fills in after a while:

D D

e---------6---6-------------------------------------------------

B---------6---6-------------------------------------------------

G--------------------------------------------------------------

D--------------------------------------------------------------

A--------------------------------------------------------------

E--------------------------------------------------------------

chorus

D D D

e--------------------------------------------------------------

B--------------------------------------------------------------

G--3-----------8------back to main riff------------------------

D--3------6----8-----------------------------------------------

A--1------6----6-----------------------------------------------

E---------4----------------------------------------------------

D D D

e--------------------------------------------------------------

B--------------------------------------------------------------

G--3-----------8------back to main riff------------------------

D--3------6----8-----------------------------------------------

A--1------6----6-----------------------------------------------

E---------4----------------------------------------------------

D D

e--------------------------------------------------------------

B--------------------------------------------------------------

G--3---------------8------back to main riff--------------------

D--3---------------8-------------------------------------------

A--1---------------6-------------------------------------------

E--------------------------------------------------------------

bagpipe bit:

e--------------------------------------|--------6--6------------

B--6----8-6---6----8-6---6------6------|--------6--6------------

G-----------8----------8------8---8-7--|----6-7-----------------

D--------------------------------------|---this can be guitar---

A-------------reapeat twice------------|---and bagpipes---------

E--------------------------------------|------------------------

solo:

/guitar 1:

|e--------------------------------------------------------------------------------------

|B--------------------------14^--14--11--13----11----11---------------------------------

|G------------------------------------------12----12------------------------------------

|D--------------------------------------------------------------------------------------

|A--------------------------------------------------------------------------------------

|E--------------------------------------------------------------------------------------

|

|guitar 2:

|e--------------------------------------------------------------------------------------

|B--------------------------------------------------------------------------------------

|G-----------8-----------3--------------------------------------------------------------

|D-6---------8-----------3--------------------------------------------------------------

|A-6---------6-----------1--------------------------------------------------------------

|E-4------------------------------------------------------------------------------------

|

|

|guitar 1:

|e-------------------------------------------13h16p13-----------------------------------

|B---------------------------16^-14-16^-16^-----------16p14p13--------------------------

|G-------------------------------------------------------------15v----------------------

|D--------------------------------------------------------------------------------------

|A--------------------------------------------------------------------------------------

|E--------------------------------------------------------------------------------------

|

|guitar 2:

|e--------------------------------------------------------------------------------------

|B--------------------------------------------------------------------------------------

|G------------8-----------3-------------------------------------------------------------

|D-6----------8-----------3-------------------------------------------------------------

|A-6----------6-----------1-------------------------------------------------------------

|E-4------------------------------------------------------------------------------------

|

|

|guitar 1:

|e-----------------------------13--13----13--13--------16----------------18-------------

|B-----------------------------14--14----14--14----16^----16^-16^-14-16^----18-21^------

|G------------------------------------15--------15--------------------------------------

|D--------------------------------------------------------------------------------------

|A--------------------------------------------------------------------------------------

|E--------------------------------------------------------------------------------------

|

|guitar 2:

|e--------------------------------------------------------------------------------------

|B--------------------------------------------------------------------------------------

|G-----------8-----------3---------------------------------------8--------------3-------

|D-6---------8-----------3--------------------------6------------8--------------3-------

|A-6---------6-----------1--------------------------6------------6--------------1-------

|E-4------------------------------------------------4-----------------------------------

Get this song at:  amazon.com

Share your thoughts

0 Comments found