Ac Dc

Ac Dc - Inject The Venum guitar tab

Intro:

E|------------------------|------------------|------------------------|

B|------------------------|------------------|------------------------|

G|-------0--2------2------|------------------|-------0--2------2------|

D|----2--0--2------2---2--|------------------|----2--0--2------2---2--|

A|----2-----0------0---2--|------------------|----2-----0------0---2--|

E|----0--3-----------3-0--|------------------|----0--3-----------3-0--|

Verses (repeat):

No mercy...

|------------------|------------------------|

|------------------|------------------------|

|------------------|-------0--2------2------|

|------------------|----2--0--2------2---2--|

|------------------|----2-----0------0---2--|

|------------------|----0--3-----------3-0--|

Tell no truth... tell no lies

|---------------------------|----------------------------|

|-------3--3----------------|--------3--3----------------|

|----2--4--2----------------|--2--2--4--2----------------|

|----2--5--4----0-0-5-4-2-2-|--2--2--5--4----0-0-5-4-2-2-|

|----0----------------------|--0--0----------------------|

|---------------------------|----------------------------|

cross your heart... hope to die

|----------------------------|-----------------------------|

|--------3--3----------------|---------3--3----------------|

|--2--2--4--2----------------|--2------4--2----------------|

|--2--2--5--4----0-0-5-4-2-2-|--2------5--4----0-0-5-4-2-4-|

|--0--0----------------------|--0--0-0---------------------|

|----------------------------|-----------------------------|

never give... scratch like...

|-----------------------------|-----------------------------|

|--4--4-4-5--5----------------|--4--4-4-5--5----------------|

|--4--4-4-6--4----------------|--4--4-4-6--4----------------|

|--4--4-4-7--6----6-6-7-6-4-6-|--4--4-4-7--6----6-6-7-6-4-6-|

|-----------------------------|-----------------------------|

|-----------------------------|-----------------------------|

inject the venom it'll be your last attack

|-----------------------------|----------------------------|

|--4--4-4-5--5----------------|--4--4-4-5--5---------------|

|--4--4-4-6--4----------------|--4--4-4-6--4---------------|

|--4--4-4-7--6----6-6-7-6-4-6-|--4--4-4-7--6----6-6-7-6-4--|

|-----------------------------|----------------------------|

|-----------------------------|----------------------------|

Chorus:

Inject the venom

|-------------------------|-----------------------------|

|-------------------------|-----------------------------|

|-------------------------|-----------------------------|

|-----5--6--7-------5--6--|-----------------------------|

|--2--5--6--7-------4--5--|--5-5-5-4-2---2-----------2--|

|--0--3--4--5----0--------|------------3-0----0-0-3--0--|

Inject...

|-------------------------|-----------------------------|

|-------------------------|-----------------------------|

|-------------------------|-----------------------------|

|-----5--6--7-------5--6--|-----------------------------|

|--2--5--6--7-------4--5--|--5-5-5-4-2---2-----------2--|

|--0--3--4--5----0--------|------------3-0----0-0-3--0--|

Inject...

|-------------------------|-----------------------------|

|-------------------------|-----------------------------|

|-------------------------|-----------------------------|

|-----5--6--7-------5--6--|-----------------------------|

|--2--5--6--7-------4--5--|--5-5-5-4-2---2--------------|

|--0--3--4--5----0--------|------------3-0----0-0-3--0--|

Inject... to verse:

|-------------------------|-------------------------|

|-------------------------|-------------------------|

|-------------------------|-------------------------|

|-----5--6--7-------5--6--|-------------------------|

|--2--5--6--7-------4--5--|--5-5-5-4-2---2----------|

|--0--3--4--5----0--------|------------3-0----------|

chord change after solo before chorus:

|-------------------------|-------------------------|

|-------------------------|-------------------------|

|-----5--6--7-------5--6--|-----5--6--7-------5--6--|

|-----4--5--7-------4--5--|-----4--5--7-------4--5--|

|--0--------0----0--------|--0--------0----0--------|

|-------------------------|-------------------------|

|-------------------------|-------------------------|

|-------------------------|-------------------------|

|-----5--6--7-------5--6--|-----5--6--7-------5--6--|

|-----4--5--7-------4--5--|-----4--5--7-------4--5--|

|--0--------0----0--------|--0--------0----0--------|

|-------------------------|-------------------------|

Get this song at:  amazon.com sheetmusicplus.com

Share your thoughts

0 Comments found