Ac Dc

Ac Dc - Inject The Venom bass tab

as requested by ibanez bass masta15 on the forums

preety easy..

This riff is played during the intro (6 times), break #1(4 times) and solo (4 times).

E-0-3-5~--5-3-0-|

A---------------|

D---------------|

G---------------|

Verse 1

E--------------------------------|

A-000-on-and-on-then-move-to-2's-|

D--------------------------------|

G--------------------------------|

end the verse with

E-------|

A-2-5-7-|

D-------|

G-------|

Then do the Break #1(same as intro/solo)

Verse 2 is exactly the same as Verse 1 only you end it with:

E-----------|

A-2-5-7-5-2-|

D-----------|

G-----------|

Chorus

E-0-2-3-5--3-0-2-5-3-2-0~-|

A-------------------------|

D-------------------------|

G-------------------------|

Then do the solo (same as intro/break #1)

Verse 3 is exactly the same as Verse 1 & 2 only you end it with:

E-----------|

A-2-5-7-8-\\-|

D-----------|

G-----------|

Then do the chorus again

Break #2

X3

E----------------|

A-0-3-5-0--2-3-5-|

D----------------|

G----------------|

fourth time is one octave up i think, you need to listen real hard for this

E-------------------|

A-------------------|

D-7-9-10-12-7-10-12-| you can try and do it with the G string [giggle] but i think the sound should be more thick

G-------------------|

Chorus again... *yawn*

Ending

E-5-3-2-0-|

A---------|

D---------|

G---------|

-Bango.

Get this song at:  amazon.com sheetmusicplus.com

Share your thoughts

0 Comments found