Ac Dc

Ac Dc - If You Want Blood (you've Got It) bass tab

Artist:AC/DC

Song:If You Want Blood (You've Got It)

Album:Highway To Hell

Bassist:Cliff Williams

Tabber:Sind (Rocklvson)

This is such an awesome tune to add stuff into. I tabbed the normal way and

the way I play it when it gets boring.

Key:

x = times a number

* = let it ring

Intro

G:-|-|-|-|-|-|----------------------------|

D:-|-|-|-|-|-|----------------------------|

A:-|-|-|-|-|-|----------------------------|

E:5|-|-|5|-|-|5*--5*--5*-5*-5*-5*-5*-5*-5*|

Verse option 1

G:---------------------------------------------------------------|

D:---------------------------------------------------------------|

A:----5x8-----5x8-----5x8-----5x8-----5x8-----5x8-----5x8-----5x8|

E:5x8-----5x8-----5x8-----5x8-----5x8-----5x8-----5x8-----5x8----|

Verse option 2

G:---------------7-5--------|

D:-----7-5-----------7-5----|

A:---------7-5-5---------7-5| x8

E:5555----------------------|

Chorus option 1

G:--------------------------------------------------------------------------------|

D:--------------------------------------------------------------------------------|

A:------5*--------5*--------5*--------5*--------5*--------5*--------5*-5-5-5-5-5-5|

E:5*--3-----5*--3-----5*--3-----5*--3-----5*--3-----5*--3-----5*--3---------------|

Chorus option 2

G:--------7-5----------| G:--------7-5------------------------|

D:------------7-5------| D:------------7-5--------------------|

A:------5---------7-5--| x6 A:------5---------7-5---5-5-5-5/17-17|

E:5*--3---------------7| E:5*--3---------------7--------------|

Verse

Chorus

Solo=Verse

Bridge

G:-------------------|

D:-------------------|

A:------------------3| x4

E:5*-22-33-5*-2*-3*--|

"If you want blood"

G:----|

D:----|

A:--5*|

E:5---|

End of Intro

Chorus through End

That's it. This song is so awesome. Make sure you crank it! I already put it

in order. Any questions or comments, e-mail me at rocklvson@yahoo.com

Get this song at:  amazon.com sheetmusicplus.com

Share your thoughts

0 Comments found