Ac Dc

Ac Dc - If You Want Blood guitar tab

If You Want Blood (You've Got It)

Intro + Verse:

E|------------------------|-------3----3--2-------|------------------------|

B|--2-------3-----2----3--|-------3----3--3-------|--2-------3-----2----3--|

G|--2-------2-----2----2--|-------0----0--2-------|--2-------2-----2----2--|

D|--2-------0-----2----0--|-------0----0--0-------|--2-------0-----2----0--|

A|--0----x-----x--0-------|----x---------------x--|--0----x-----x--0-------|

E|------------------------|-----------------------|------------------------|

|-------3----3--2-------|------------------------|-------3----3--2-------|

|-------3----3--3-------|--2-------3-----2----3--|-------3----3--3-------|

|-------0----0--2-------|--2-------2-----2----2--|-------0----0--2-------|

|-------0----0--0-------|--2-------0-----2----0--|-------0----0--0-------|

|----x---------------x--|--0----x-----x--0-------|----x---------------x--|

|-----------------------|------------------------|-----------------------|

if you want blood...

|------------------------|-------3----3--2--2----|-------------3----2--|

|--2-------3-----2----3--|-------3----3--3--3----|--2----------3----3--|

|--2-------2-----2----2--|-------0----0--2--2----|--2----------0----2--|

|--2-------0-----2----0--|-------0----0--0--0----|--2----------0----0--|

|--0----x-----x--0-------|----x------------------|--0----------2-------|

|------------------------|-----------------------|-------------3-------|

|------------------|-------------3----2--|------------------|

|------------------|--2----------3----3--|------------------|

|------------------|--2----------0----2--|------------------|

|------------------|--2----------0----0--|------------------|

|------------------|--0----------2-------|------------------|

|------------------|-------------3-------|------------------|

|-------------3----2--|------------------|-------------3----2--|

|--2----------3----3--|------------------|--2----------3----3--|

|--2----------0----2--|------------------|--2----------0----2--|

|--2----------0----0--|------------------|--2----------0----0--|

|--0----------2-------|------------------|--0----------2-------|

|-------------3-------|------------------|-------------3-------|

|------------------|-------------3----2--|------------------|

|------------------|--2----------3----3--|------------------|

|------------------|--2----------0----2--|------------------|

|------------------|--2----------0----0--|------------------|

|------------------|--0----------2-------|------------------|

|------------------|-------------3-------|------------------|

after solo:

|-------------------2--|----3--3----3--2------|---------------------|

|--2------3----2----3--|----3--3----3--3------|----2------3----2----|

|--2------2----2----2--|----2--2----2--2------|----2------2----2----|

|--2------2----2----0--|----0--0----0--0------|----2------2----2----|

|--0------0----0-------|----------------------|----0------0----0----|

|----------------------|----------------------|---------------------|

|------------------------|-------------------2--|----3--3----3--2------|

|------------------------|--2------3----2----3--|----3--3----3--3------|

|------------------------|--2------2----2----2--|----2--2----2--2------|

|----------0-------------|--2------2----2----0--|----0--0----0--0------|

|-------0--------0--3----|--0------0----0-------|----------------------|

|----2--------3----------|----------------------|----------------------|

|---------------------|------------------------|

|----2------3----2----|------------------------|

|----2------2----2----|------------------------|

|----2------2----2----|----------0-------------|

|----0------0----0----|-------0--------0--3----|

|---------------------|----2--------3----------|

Tablature by Clemens Fehlow.

Get this song at:  amazon.com sheetmusicplus.com

Share your thoughts

0 Comments found