Ac Dc

Ac Dc - Hihghway To Hell bass tab

Verse

--------------------------------------|

--------------------------------------|

-2-2-2-2-2-2-2-2-2-2-2-2-2-2-2-2-2-2--|

--------------------------------------|

Chorus

----------------------------------------------------------|

----------------------------------------------------------|

-0-0----3-3----1-1----2-2----2-2----3-3----0-0-0-0-0-0-0--|

----------------------------------------------------------|

Solo

--------------| |G|--------------|

--------------| |D|--------------|

-3-0-3-0-3-5--| |A|-2-0-2-0-2-4--|

--------------| x8 |E|--------------| x7

-----------------------------------------------|

-----------------------------------------------|

-0-2-0-2-0-2-0-2---0-22--2-22-0--22---0-0-0-0--|

-----------------------------------------------|

----------|

----------|

-3-0-2-2--|

----------| x5

Get this song at:  amazon.com

Share your thoughts

0 Comments found