Ac Dc

Ac Dc - Highway To Helll bass tab

I wrote this in standard tuning so wen u play it u dont have to tune down half

a step

Part 1

--------------------------- ORDER

---------------------------

--111-----------------11--- Part 1- 5 times

-------334--334-334-3------ Part 2- 1 time

Part 3- 3 times

Part 2 Part 4- 1 time

-----------------------

-------------------------------------------- Part 1 - 3 times

--111--------------------------------------- Part 2- 1 time

-------334--334-334-3-0--0-0-0-0-0-0-0-0---- Part 3- 3 times

Part 4- 1 time

Part 3 Part 5- 1 time

Part 3- 7times

---------------------- Part 3b- 1 time

---------------------- Part 3- 3 times

--1-1-1-1-6-6--------- part 3 without last two notes-1 time

--------------4-3----- End with Part 6- 1 time

Part 3 b

------------------

------------------

--1-1-1-1-6-------

------------4-3---

Part 4

-------------

-------------

--1-1-1-1-6--

-------------

Part 5

----------------------------------------------------

----------------------------------------------------

--1-1-1--1-1-1-6--1-1-1--1-1-1-6--1-1-1-6-1---------

----------------------------------------------------

Part 6

-------------

-------------

-------------

--5-------5--

Get this song at:  amazon.com

Share your thoughts

0 Comments found