Ac Dc

Ac Dc - Highway To Hell (verse And Intro Only) bass tab

Riff 1 x2 (drums enter on 2nd time)

Gb|----------------------------------------||

Db|----------------------------------------||

Ab|-0-0-0------------------------------0-0-||

Eb|----------2-2-3----2-2-3--2-2-3--2------||

Verse 1

Gb|----------------------------------------|X3

Db|----------------------------------------|

Ab|-0-0-0------------------------------0-0-|

Eb|----------2-2-3----2-2-3--2-2-3--2------|

|

Gb|-----------------------------------------------------||

Db|-----------------------------------------------------||

Ab|-0-0-0-----------------------------------------------||

Eb|----------2-2-3----2-2-3--2-2-3--2--0--0-0-0-0-0-0-0-||

ENJOY!!!

Brought to you by the BassMasta - http://www.tabs-database.com

Get this song at:  amazon.com

Share your thoughts

0 Comments found