Ac Dc

Ac Dc - Highway To Hell (solo) guitar tab

^ = Bend

X = Muffled String

E|--------5--------------------------------------------------------------------|

B|------5-------5-5-----5-5-----5-5-----5-5-7-8^7---^8-------------------------|

G|-7^9------7^9-----7^9-----7^9-----7^9-----7-8^7---^8-5---7-5^6---------------|

D|------------------------------------------------------7----------4-5^4-2-----|

A|---------------------------------------------------------------X---------3-0-|

E|-----------------------------------------------------------------------------|

Im on the

E|-------5-------------5*----------5---------------|

B|---------5-----------5*--5---------5-------------|

G|-2-4^6-----6^4-2-0-----4^5-2-0*2-----4-5^4-14-18-|

D|-------------------0-----------------------------|

A|------------------------------------------X--X---|

E|-------------------------------------------------|

Get this song at:  amazon.com

Share your thoughts

0 Comments found