Ac Dc

Ac Dc - Highway To Hell (official) guitar tab

AC/DC - Highway to Hell

Tabbed By: trevwh0re

Tuning: 1/4 Step Flat (One fret lower)

I also got this tab from the Young brothers, who tabbed it for an issue of Guitar World:

Guitar Legends Magazine, which means its perfect. ENJOY!

Intro/Verses:

Palm mute the strings after each set of chords.

|--------------x-x-x-------x-x-x---x-x-x---x---------|--|

|--------------3-3-3-------3-3-3---3-3-3---3---------|--|

|--2-2-2-------2-2-0-------2-2-0---2-2-0---2---2-2---|X5|

|--2-2-2-------0-0-0-------0-0-0---0-0-0---0---2-2---|--|

|--0-0-0-------x-x-x-------x-x-x---x-x-x---x---0-0---|--|

|--------------2-2-3-------2-2-3---2-2-3---2---------|--|

Bridge:

|--------------x-x-x-------x-x-x---x-x-x---x-------------------------------------|

|--------------3-3-3-------3-3-3---3-3-3---3-------------------------------------|

|--2-2-2-------2-2-0-------2-2-0---2-2-0---2-------------------------------------|

|--2-2-2-------0-0-0-------0-0-0---0-0-0---0----2---2-2-2-2-2-2-2-2-2-2-2-2-2-2--|

|--0-0-0-------x-x-x-------x-x-x---x-x-x---x----2---2-2-2-2-2-2-2-2-2-2-2-2-2-2--|

|--------------2-2-3-------2-2-3---2-2-3---2--0-0---0-0-0-0-0-0-0-0-0-0-0-0-0-0--|

Chorus:

|-------------2--2-2----3---x---|--|-------------2---|

|--2---2-2----3--3-3----3---3---|--|--2---2-2----3---|

|--2---2-2-0--2--2-2----0---2---|X3|--2---2-2-0--2---|

|--2---2-2-0------------0---0---|--|--2---2-2-0------|

|--0---0-0--------------x---x---|--|--0---0-0--------|

|---------------------0-3---2---|--|-----------------|

Pre-Solo: Play the Chorus, then play this.

|--2--2-x--x-x---2-------2--2-x--x-x-2-2--x-x-2-x---|

|--3--3-3--3-3---3-------3--3-3--3-3-3-3--3-3-3-3---|

|--2--2-2--0-0---2-------2--2-2--0-0-2-2--0-0-2-0---|

|--0--0-0--0-0---0-------0--0-0--0-0-0-0--0-0-0-0---|

|----------x-x-------------------x-x------x-x---x---|

|----------3-3-------------------3-3------3-3---3---|

Rhythm Solo Part:

Play the first part of the chorus until the end, and then the second part for the last piece.

Solo:

|------5-5------5-5------5-5------5-5------5-5---|

|------5-5------5-5------5-5------5-5------5-5---|

|--7fb------7fb------7fb------7fb------7fb-------|

|------------------------------------------------|

|------------------------------------------------|

|------------------------------------------------|

I will have the rest of the song finished later. The solo is long, so it will take a while

to copy the rest out.

Get this song at:  amazon.com sheetmusicplus.com

Share your thoughts

0 Comments found