Ac Dc

Ac Dc - Highway To Hell guitar tab

e|-------------||---------------------------------------||

B|-------------||-3--3--3-------3--3--3------3--3--3----||

G|--2---2---2--||-2--2--0-------2--2--0------2--2--0----||o

D|--2---2---2--||-0--0--0-------0--0--0------0--0--0----||o

A|--0---0---0--||-x--x--x-------x--x--x------x--x--x----||

E|-------------||-2--2--3-------2--2--3------2--2--3----||

e|-----------------------------------||

B|--3--------------------------------||

G|--2-----2---2-----------2--2--2----||

D|--0-----2---2-----------2--2--2----||

A|--x-----0---0-----------0--0--0----||

E|--2--------------------------------||

Pre-Chorus:

e|------------------------------------------------------|

B|------------------------------------------------------|

G|------------------------------------------------------|

D|-------2----2--2--2--2--2--2--2--2--2--2--2--2--2--2--|

A|-------2----2--2--2--2--2--2--2--2--2--2--2--2--2--2--|

E|-0-----0----0--0--0--0--0--0--0--0--0--0--0--0--0--0--|

pm .........................................

e|----------------------2----2--2--2--------3----2-----||

B|-2-----2----2---------3----3--3--3--------3----3-----||

G|-2-----2----2-----0---2----2--2--2--------0----2-----||o

D|-2-----2----2-----0---0----0--0--0--------0----0-----||o

A|-0-----0----0-----------------------------x----x-----||

E|-------------------------------------0----3----2-----||

e|----------------------2~---------------------||

B|-2-----2----2-----0---3~---------------------||

G|-2-----2----2-----0---2~----------2---2---2--||

D|-2-----2----2---------0~----------2---2---2--||

A|-0-----0----0---------0~----------0---0---0--||

E|---------------------------------------------|

Guitar 1

e|-2~---2-------------2----------|

B|-3~---3--3--3---3---3----------|

G|-2~---2--2--0---0---2----------|

D|-0~------0--0---0---0----------| repeat til solo

A|------------x---x--------------|

E|------------3---3--------------|

Guitar 2

e|-2~-----------------2----------|

B|-3~---------3---3---3----------|

G|-2~---------0---0---2----------|

D|-0~---0-----0---0---0----------|

A|-0----0-----x---x---0----------|

E|------------3---3--------------|

Solo: Guitar 2 plays chorus

e|-----5--5------5--5-----5--5------5--5------5--5------|

B|-----5--5------5--5-----5--5------5--5------5--5--7^--|

G|-7^--------7^--------7^-------7^--------7^--------7---|

D|------------------------------------------------------|

A|------------------------------------------------------|

E|------------------------------------------------------|

e|--------------------------------------------------------|

B|-7^--7^---5---------------------------------------------|

G|-7^--7^---5-----7--5--5^--0-------------------2---4^~~~~|

D|-------------7---------------4^---2---------------------|

A|--------------------------------------2^-p0-------------|

E|--------------------------------------------------------|

e|--5----------------------5------------------------------|

B|-----5---5---------------5-------5---5^-----------------|

G|---------4---2---------------0---5---5^-----------------|

D|------------------4^---------------------7---5---0--4/7-|

A|----------------------0---------------------------------|

E|--------------------------------------------------------|

e|--5-----------------------------|

B|-------5----------3-/-10~~~~----|

G|-----------5--------------------|

D|---------------7----------------|

A|--------------------------------|

E|--------------------------------|

e|-----------------14^--12--------------------------12--12--|

B|-10\\-----------x----------13^---------------------13--13--|

G|-------------x-----------------14--14-----14\\-------------|

D|----------------------------------------------------------|

A|----------------------------------------------------------|

E|----------------------------------------------------------|

e|-12^-------------12^---------------------15---------------|

B|-13^-------------13^--------15^--15^15^------15^---15^~-\\-|

G|-------14---11------------full---1/2-full-----------------|

D|----------------------------------------------------------|

A|----------------------------------------------------------|

E|----------------------------------------------------------|

e|------------------------------12^---12^-------------------|

B|-x\\\\\\x\\\\\\---------------------13^---13^----13^------------|

G|-x\\\\\\x\\\\\\---------------------------------------14--------|

D|-x\\\\\\x\\\\\\--------x/----x\\---------------------------------|

A|-x\\\\\\x\\\\\\--------x/----x\\---------------------------------|

E|------------2----x/----x\\---------------------------------|

e|-12---------12^-------------------------------------------|

B|-13---13^---13^---------17^-------------------------------|

G|------------------14----------------17^-----14------17----|

D|------------------------------------1/2-------------------|

A|----------------------------------------------------------|

E|----------------------------------------------------------|

e|---------12-------12---12------------------------------20^|

B|--15^------------------13^-----------------------13^------|

G|-full---------------------------14----11---14-------------|

D|----------------------------------------------------------|

A|----------------------------------------------------------|

E|----------------------------------------------------------|

Outro:

e|--------------------------------------#####---------------|

B|-20^^^~-------------------------------17h20~~-------------|

G|--------------------------------------trill---------------|

D|-------------0~~~~~~--------------------------------------|

A|----------------------------------------------------------|

E|----------------------------------------------------------|

e|------------------------------------------|

B|------------------------------------------|

G|-------------/14-------------0----------2-|

D|-------------/14-------------2----------2-|

A|-x\\\\\\\\\\\\\\\\---/12-------------0----------0-|

E|-x\\\\\\\\\\\\\\\\--------------------------------|

Get this song at:  amazon.com sheetmusicplus.com

Share your thoughts

0 Comments found