Ac Dc

Ac Dc - High Voltage 100% Accurate guitar tab

AC/DC - High Voltage

Tabbed By: trevwh0re

**Intro

Rhythm: Lead:

E D C# A E D C# A

|-------------------| |-------------------|

|-------------------| |-------------------|

|-------------------|X4 |-------------2-2---|X4

|--999---7-7--------| |--999---7-7--2-2---|

|--777---5-4--7-7---| |--777---5-4--0-0---|

|-------------5-5---| |-------------------|

A5 Shuffle Lead:

|----------------------------------------------| |------5----5------5----5---|

|----------------------------------------------| |--------5--5--------5--5---|

|----------------------------------------------| |--5h6---------5h6----------|X2

|----------------------------------------------| |---------------------------|

|--7h9-7x-7---7h9-7x-7---7h9-5x-5---7h9-5x-5---| |---------------------------|

|--5---5x-5---5---5x-5---5---7x-7---5---7x-7---| |---------------------------|

**Verse

Rhythm:

E D To Bridge

|---------------------------------------------|--|------------|

|---------------------------------------------|--|------------|

|---------------------------------------------|X3|------------|

|-----9---9------9---9------7---7------7---7--|--|----5-5-4-2-|

|-----7---7------7---7------5---5------5---5--|--|----3-3-2-0-|

|--0x---0-----0x---0-----0x---0-----0x---0----|--|-0x---------|

Lead:

|--------12-12--------12-12--------10-10--------10-10---|

|--------12-12--------12-12--------10-10--------10-10---|

|--12h13--------12h13--------10h11--------10h11---------|X3

|-------------------------------------------------------|

|-------------------------------------------------------|

|-------------------------------------------------------|

To Bridge

|--------12-12--------12-12--------10-10---8-8---------|

|--------12-12--------12-12--------10-10---8-8--7--5---|

|--12h13--------12h13--------10h11---------------------|

|------------------------------------------------------|

|------------------------------------------------------|

|------------------------------------------------------|

**Bridge

Rhythm:

A5 Shuffle

|--------------------------------------------------|

|--------------------------------------------------|

|--------------------------------------------------|

|--------------------------------------------------|

|--7h9-7x-7x---7h9-7x-7x---7h9-7x-7x---7h9-7x-7x---|

|--5---5x-5x---5---5x-5x---5---5x-5x---5---5x-5x---|

Lead:

|------5-5------5-5------5-5------5-5---|

|------5-5------5-5------5-5------5-5---|

|--5h6------5h6------5h6------5h6-------|

|---------------------------------------|

|---------------------------------------|

|---------------------------------------|

**Chorus

Rhythm:

A5 Shuffle C5 D5 A5 Shuffle

|-------------------------------------------|

|-------------------------------------------|

|-------------5---7-------------------------|X2

|-------------5---7-------------------------|

|--7-7-9-7x-9-3---5---7-7-9-7-9--7-7-9-7-9--|

|--5-5-5-5x-5---------5-5-5-5-5--5-5-5-5-5--|

C D C D C G5 D

|-------------------------------------x---2---|

|-------------------------------------3---3---|

|--55555--77777--55555--77777--55555--0---2---|

|--55555--77777--55555--77777--55555--0---0---|

|--33333--55555--33333--55555--33333--x-------|

|-------------------------------------3-------|

A5 Shuffle

|--------------|

|--------------|

|--------------|X4

|--------------|

|--7-7-9-7x-9--|

|--5-5-5-5x-5--|

Lead:

A5 C D A5

|------------------|

|------------------|

|--2---5---7---2---|X2

|--2---5---7---2---|

|--0---3---5---0---|

|------------------|

C D C D C G5 D

|----------------------x---2---|

|----------------------3---3---|

|--5---7---5---7---5---0---2---|

|--5---7---5---7---5---0---0---|

|--3---5---3---5---3---x-------|

|----------------------3-------|

**Solo 1

Rhythm:

Intro X4

A5 Shuffle @ End X8

Lead:

E Blues

A5 Chord @ End

**Solo 2

Rhythm: Chorus

Lead: E Blues

Get this song at:  amazon.com sheetmusicplus.com

Share your thoughts

0 Comments found