Ac Dc

Ac Dc - Hells Bells (with Guitar Intro For Bass) bass tab

Guitar Intro for bass:

G |---9------------|----------------|

D |--------12------|-------10-------|

A |-0---0---------|-12-0-----------|

E |----------------|----------------|

G |----------------|----------------|

D |--------12------|----------------|

A |-12-0-----------|----0----------|

E |----------------|----------------|

G |---9------------|----------------|

D |--------12------|-------10-------|

A |-0---0---------|-12-0-----------|

E |----------------|----------------|

G |----------------|----------------|

D |--------12------|----------------|

A |-12-0-----------|---3--2--0----|

E |----------------|----------------|

G |----------------|----------------|

D |----------------|----------------|

A |---7---5---7----|---5---3---5----|

E |----------------|----------------|

G |----------------|----------------|

D |----------------|----------------|

A |----3-----2-----|---0------------|

E |----------------|----------------|

Bass Intro:

G|----------------|----------------|

D|----------------|----------------|

A|----------------|-------------3-2|

E|----------------|----------------|

G|----------------|----------------|

D|----------------|----------------|

A|-0--------------|----------------|

E|----------------|----------------|

G|----------------|----------------|

D|----------------|----------------|

A|-0--------------|-------------3-2|

E|----------------|----------------|

G|----------------|----------------|

D|----------------|----------------|

A|-0---0-0-0-0-0-0|-0-0-0-0-0-0-0-0|

E|----------------|----------------|

G|----------------|----------------|

D|----------------|----------------|

A|-0-0-0-0-0-0-0-0|-0-0-0-0-0-0-3-2|

E|----------------|----------------|

G|----------------|----------------|

D|----------------|----------------|

A|-0---0-0-0-0-0-0|-0-0-0-0-0-0-0-0|

E|----------------|----------------|

G|----------------|----------------|

D|----------------|-5--------------|

A|-0-0-0-0-0-0-0-0|-------5-----3-2|

E|----------------|----------------|

G|----------------|----------------|

D|----------------|----------------|

A|-0---0-0-0-0-0-0|-5-5-5-5-3--2---|

E|----------------|----------------|

G|----------------|----------------|

D|----------------|----------------|

A|-0-0-0-0-0-0-0-0|-5-5-5-5-3--2---|

E|----------------|----------------|

Verse 1:

G| ----------------|---------------- |

D|*----------------|----------------*|

A|*-0-0-0-0-0-0-0-0|-5-5-5-5-3--2---*|

E| ----------------|---------------- |

Pre-chorus:

G| ----------------|---------------- |

D|*----------------|----------------*|

A|*-5-5-5-5-5-5-5-5|-5-5-5-5-3------*|

E| ----------------|-------------3-- |

G|----------------|----------------|

D|----------------|----------------|

A|-7-7-7-7-7-7-7-7|-7-7-7-7-5------|

E|----------------|-------------5--|

G|----------------|----------------|

D|----------------|----------------|

A|----------------|---------5------|

E|-0-0-0-0-0-0-0-0|-0-0-0-0-----5--|

Chorus:

G|----------------|-----|----------------|

D|----------------|-?//-|----------------|

A|-0-0-0-0-0-0-0-0|-//?-|-0-0-0-0-0-0-3-2|

E|----------------|-----|----------------|

G|----------------|----------------|

D|----------------|----------------|

A|-0---0-0-0-0-0-0|-0-0-0-0-0-0-0-0|

E|----------------|----------------|

G|----------------|----------------|

D|----------------|-5--------------|

A|-0-0-0-0-0-0-0-0|-------5-----3-2|

E|----------------|----------------|

G|----------------|----------------|

D|----------------|----------------|

A|-0---0-0-0-0-0-0|-5-5-5-5-3--2---|

E|----------------|----------------|

G|----------------|----------------|

D|----------------|----------------|

A|-0-0-0-0-0-0-0-0|-5-5-5-5-3--2---|

E|----------------|----------------|

Verse 2 Pre-chorus Chorus Then:

G|----------------|----------------|

D|----------------|----------------|

A|-0---0-0-0-0-0-0|-0-0-0-0-0-0-0-0|

E|----------------|----------------|

G|----------------|----------------|

D|----------------|----------------|

A|-0-0-0-0-0-0-0-0|-0-0-0-0-0---0--|

E|----------------|---------------3|

Bridge:

G| ----------------|---------------- |

D|*----------------|----------------*|

A|*-0------3-------|-5-----------0--*|

E| ----------------|---------------3 |

Guitar Solo:

G| ----------------|---------------- |

D|*----------------|----------------*|

A|*-5-5-3-5-5-5-3-5|-5-5-5-5-3------*|

E| ----------------|-------------3-- |

G|----------------|----------------|

D|----------------|----------------|

A|-7-7-5-7-7-7-5-7|-7-7-7-7-5------|

E|----------------|-------------5--|

G|----------------|----------------|

D|----------------|---------5------|

A|----------------|-------------5--|

E|-0-0-0-0-0-0-0-0|-0-0-0-0--------|

Chorus:

G|----------------|-----|----------------|

D|----------------|-?//-|----------------|

A|-0-0-0-0-0-0-0-0|-//?-|-0-0-0-0-0-0-3-2|

E|----------------|-----|----------------|

G|----------------|----------------|

D|----------------|----------------|

A|-0---0-0-0-0-0-0|-0-0-0-0-0-0-0-0|

E|----------------|----------------|

G|----------------|----------------|

D|----------------|----------------|

A|-0-0-0-0-0-0-0-0|-3-----5-----3-2|

E|----------------|----------------|

G|----------------|-----------------|

D|----------------|-----------------|

A|-0---0-0-0-0-0-0|-0-0-0-0-0-5-7-10|

E|----------------|-----------------|

G|----------------|----------------|

D|----------------|----------------|

A|-0-0-0-0-0-0-0-0|-3-----5-----3-2|

E|----------------|----------------|

G|----------------|----------------|

D|----------------|----------------|

A|-0---0-0-0-0-0-0|-0-0-0-0-0-0-0-0|

E|----------------|----------------|

G|----------------|----------------|

D|----------------|----------------|

A|-0-0-0-0-0-0-0-0|-3-----5-----0--|

E|----------------|---------------3|

Ending:

G| ----------------|---------------- |

D|*----------------|----------------*|

A|*-0------3-------|-5-----------0--*|

E| ----------------|---------------3 |

G|--- |

D|----|

A|-0--|

E|----|

Get this song at:  amazon.com sheetmusicplus.com

Share your thoughts

0 Comments found