Ac Dc

Ac Dc - Hells Bells Tested 100% bass tab

HELLS BELLS ACDC

100% TESTED

4-5-5-5-5-5-5--------5-5-5-5-5-5--------5-5-5-5-5-5----------|

3--------------3-2-0--------------3-2-0--------------3-2-0---|

2------------------------------------------------------------|

1------------------------------------------------------------|

4-5-5-5-5-5-5--------5-5-5-5-5-5--------5-5-5-5-5-5--3-5-----|

3--------------3-2-0--------------3-2-0-----------------3-2-0|

2------------------------------------------------------------|

1------------------------------------------------------------|

4-5-----------------5-----------------5----------------------|

3---7-5-7-5-3-5-3-2---7-5-7-5-3-5-3-2---7-5-7-5-3-5-3-2------|

2------------------------------------------------------------|

1------------------------------------------------------------|

4-5-----------------5-----------------5----------------------|

3---7-5-7-5-3-5-3-2---7-5-7-5-3-5-3-2---7-5-7-5-3-5-3-2------|

2------------------------------------------------------------|

1------------------------------------------------------------|

4-----------------3-----------------3----------------5-------|

3-5-5-5-5-5-5-5-3---5-5-5-5-5-5-5-3---7-7-7-7-7-7-7-5--------|

2------------------------------------------------------------|

1------------------------------------------------------------|

4-------------------3-3-5-5-5-5-5-5-------5-5-5-5-5-5-3--------|

3-7-7-7-7-7-7-7-5-7-----------------3-2-0---------------5-3-2-0|

2--------------------------------------------------------------|

1--------------------------------------------------------------|

4-5----------------5-----------------5-------------------------|

3--7-5-7-5-3-5-3-2---7-5-7-5-3-5-3-2---7-5-7-5-3-5-5-5-3-2-----|

2--------------------------------------------------------------|

1--------------------------------------------------------------|

4-5----------------5-----------------5-------------------------|

3--7-5-7-5-3-5-3-2---7-5-7-5-3-5-3-2---7-5-7-5-3-5-5-5-3-2-----|

2--------------------------------------------------------------|

1--------------------------------------------------------------|

4---------------3---------------3---------------5--------------|

3-5-5-5-5-5-5-3---5-5-5-5-5-5-3---7-7-7-7-7-7-5----------------|

2--------------------------------------------------------------|

1--------------------------------------------------------------|

4-----------------3-3-5-5-5-5-5-5-5-----5-5-5-5-5-5-5-3--------|

3-7-7-7-7-7-7-5-7-------------------3-2-----------------5-3-2-0|

2--------------------------------------------------------------|

1--------------------------------------------------------------|

4---------------5-5-3-5-----5-5-3-5-----5-5-3-5-----5-5-3-5----|

3-0-0-0-0-0-0-0---------3-5---------3-5---------3-5---------3-5|

2--------------------------------------------------------------|

1--------------------------------------------------------------|

4-----------------3-----------------3----------------5-------|

3-5-5-5-5-5-5-5-3---5-5-5-5-5-5-5-3---7-7-7-7-7-7-7-5--------|

2------------------------------------------------------------|

1------------------------------------------------------------|

4-------------------3-3-5-5-5-5-5-5-------5-5-5-5-5-5-3--------|

3-7-7-7-7-7-7-7-5-7-----------------3-2-0---------------5-3-2-0|

2--------------------------------------------------------------|

1--------------------------------------------------------------|

4-5-5-5-5-5-5--------5-5-5-5-5-5--------5-5-5-5-5-5--3-------|

3--------------3-2-0--------------3-2-0-----------------3-2-0|

2------------------------------------------------------------|

1------------------------------------------------------------|

4-5-5-3-5-----5-5-3-5-----5-5-3-5-----5-5-3-5----|

3---------3-5---------3-5---------3-5---------3-5|

2------------------------------------------------|

1------------------------------------------------|

4------|

3-3-2-0| end

2------|

1------|

Get this song at:  amazon.com sheetmusicplus.com

Share your thoughts

0 Comments found