Ac Dc

Ac Dc - Hells Bells (full) guitar tab

E||-------------------------|------------------------|------------------------|

B||-------------------------|------------------------|------------------------|

G||-----9-----7----------5--|----------7-------------|----9-----7----------5--|

D||--------7-------7--------|----5----------7--------|-------7-------7--------|

A||--0----------------0-----|-------0----------0--0--|------------------0-----|

E||-------------------------|------------------------|------------------------|

------------------------|------------------------|------------------------|

------------------------|------------------------|------------------------|

----------7-------------|----9-----7----------5--|----------7-------------|

----5----------5--5-----|-------7-------7--------|----5----------7--------|

-------0-------3--2--0--|------------------0-----|-------0----------0--0--|

------------------------|------------------------|------------------------|

------------------------|------------------------|------------------------|

------------------------|------------------------|------------------------|

----9-----7----------5--|----------7-------------|----9-----7----------5--|

-------7-------7--------|----5----------5--5-----|-------7-------7--------|

------------------0-----|-------0-------3--2--0--|------------------0-----|

------------------------|------------------------|------------------------|

------------------------|------------------------|------------------------|

------------------------|------------------------|------------------------|

----------7-------------|----9-----7----------5--|----------7-------------|

----5----------7--------|-------7-------7--------|----5----------5--5-----|

-------0----------0--0--|------------------0-----|-------0-------3--2--0--|

------------------------|------------------------|------------------------|

------------------------|------------------------|------------------------|

------------------------|------------------------|------------------------|

----9-----7----------5--|----------7-------------|----9-----7----------5--|

-------7-------7--------|----5----------7--------|-------7-------7--------|

------------------0-----|-------0----------0--0--|------------------0-----|

------------------------|------------------------|------------------------|

------------------------|------------------------|------------------------|

------------------------|------------------------|------------------------|

----------7-------------|----9-----7----------5--|----------7-------------|

----5----------5--5-----|-------7-------7--------|----5----------7--------|

-------0-------3--2--0--|------------------0-----|-------0----------0--0--|

------------------------|------------------------|------------------------|

------------------------|------------------------|------------------------|

------------------------|------------------------|------------------------|

----9-----7----------5--|----------7-------------|----9-----7----------5--|

-------7-------7--------|----5----------5--5-----|-------7-------7--------|

------------------0-----|-------0-------3--2--0--|------------------0-----|

------------------------|------------------------|------------------------|

------------------------|------------------------|------------------------|

------------------------|---------------------3--|----3-----3-------------|

----------7-------------|----9-----7----------0--|----0-----2-------------|

----5----------7--------|-------7-------7-----0--|----0--0--0-------------|

-------0----------0--0--|------------------0--x--|----x--0-------3b-2--0--|

------------------------|---------------------3--|----3-------------------|

------------------------|---------------------|-------------------------|

------------------------|---------------------|-------------------------|

----9--7--9----7--5--7--|---------------------|-----9--7--9----7--5--7--|

----7--7--7----7--5--7--|-----------5----5----|-----7--7--7----7--5--7--|

------------------------|--------0--3----2----|--0----------------------|

------------------------|---------------------|-------------------------|

---------------------|-------------------------|-----------------------|

---------------------|-------------------------|-----------------------|

---------------------|----------------7-----7--|-----------------------|

-----------5----5----|-----2--0--2----7--5--7--|-------------5----5----|

--------0--3----2----|--0--0--0--0----5--5--5--|----5--5--0--3----2----|

---------------------|-------------------------|-----------------------|

-------------------------|-----------------------|-------------------------|

-------------------------|-----------------------|-------------------------|

----------------7-----7--|-----------------------|----------------7-----7--|

-----2--0--2----7--5--7--|-------------5----5----|-----2--0--2----7--5--7--|

--0--0--0--0----5--5--5--|----5--5--0--3----2----|--0--0--0--0----5--5--5--|

-------------------------|-----------------------|-------------------------|

-----------------------|-------------------------|-----------------------|

-----------------------|-------------------------|-----------------------|

-----------------------|----------------7-----7--|-------7---------------|

-------------5----5----|-----2--0--2----7--5--7--|-------7-----5----5----|

----5--5--0--3----2----|--0--0--0--0----5--5--5--|----5--5--0--3----2----|

-----------------------|-------------------------|-----------------------|

-------------------------|-----------------------|-------------------------|

-----3-----3----3--3--3--|----3--3----------3----|--3--3--3--3----3--0--3--|

-----2--0--2----2--0--2--|----2--2--0--5----0----|--2--2--0--2----2--0--2--|

--0--0--0--0----0--0--0--|----0--0--0--5----0----|--0--0--0--0----0--0--0--|

-------------------------|-------------3----x----|-------------------------|

-------------------------|------------------3----|-------------------------|

-----------------------|-------------------------|-----------------------|

----3--3--0-------3----|-------------------------|-------------3---------|

----2--2--0--5----0----|-----9-----9----9-----9--|----9--9--0--2----2----|

----0--0--0--5----0----|-----9--7--9----9--7--9--|----9--9--0--0----2----|

-------------3----x----|-----7--7--7----7--7--7--|----7--7----------0----|

------------------3----|--0-----0----------0-----|-----------------------|

-------------------------|-----------------------|-------------------------|

-------------------------|-------------3----3----|-------------------------|

-----9-----9----9-----9--|----9--9--0--0----0----|-----9-----7----------5--|

-----9--7--9----9--7--9--|----9--9--0--0----0----|--------7-------7--------|

-----7--7--7----7--7--7--|----7--7-----x----x----|--0----------------0-----|

--0-----0----------0-----|-------------3----3----|-------------------------|

------------------------|------------------------|------------------------|

------------------------|------------------------|------------------------|

----------7-------------|----9-----7----------5--|----------7-------------|

----5----------7--------|-------7-------7--------|----5----------5--5-----|

-------0----------0--0--|------------------0-----|-------0-------3--2--0--|

------------------------|------------------------|------------------------|

-------------------------|------------------------|------------------------|

-------------------------|------------------------|---------------------3--|

-----9-----7----------5--|----------7-------------|----9-----7----------0--|

--------7-------7--------|----5----------7--------|-------7-------7-----0--|

--0----------------0-----|-------0----------0--0--|------------------0--x--|

-------------------------|------------------------|---------------------3--|

------------------------|------------------------|---------------------|

----3-----3-------------|------------------------|---------------------|

----0-----2-------------|----9--7--9----7--5--7--|---------------------|

----0--0--0-------------|----7--7--7----7--5--7--|-----------5----5----|

----x--0-------3b-2--0--|------------------------|--------0--3----2----|

----3-------------------|------------------------|---------------------|

-------------------------|---------------------|-------------------------|

-------------------------|---------------------|-------------------------|

-----9--7--9----7--5--7--|---------------------|----------------7--5--7--|

-----7--7--7----7--5--7--|-----------5----5----|-----2--0--2----7--5--7--|

--0----------------------|--------0--3----2----|--0--0--0--0----5-----5--|

-------------------------|---------------------|-------------------------|

-----------------------|-------------------------|-----------------------|

-----------------------|-------------------------|-----------------------|

-----------------------|----------------7--5--7--|-----------------------|

-------------5----5----|-----2--0--2----7--5--7--|-------------5----5----|

----5--5--0--3----2----|--0--0--0--0----5-----5--|----5--5--0--3----2----|

-----------------------|-------------------------|-----------------------|

-------------------------|-----------------------|-------------------------|

-------------------------|-----------------------|-------------------------|

----------------7--5--7--|-----------------------|----------------7--5--7--|

-----2--0--2----7--5--7--|-------------5----5----|-----2--0--2----7--5--7--|

--0--0--0--0----5-----5--|----5--5--0--3----2----|--0--0--0--0----5-----5--|

-------------------------|-----------------------|-------------------------|

-----------------------|-------------------------|-----------------------|

-----------------------|-----3-----3----3--3--3--|----3--3----------3----|

-------7---------------|-----2--0--2----2--0--2--|----2--2--0--5----0----|

-------7-----5----5----|--0--0--0--0----0--0--0--|----0--0--0--5----0----|

----5--5--0--3----2----|-------------------------|-------------3----x----|

-----------------------|-------------------------|------------------3----|

-------------------------|-----------------------|-------------------------|

--3--3--3--3----3--0--3--|----3--3--0-------3----|-------------------------|

--2--2--0--2----2--0--2--|----2--2--0--5----0----|-----9-----9----9-----9--|

--0--0--0--0----0--0--0--|----0--0--0--5----0----|-----9--7--9----9--7--9--|

-------------------------|-------------3----x----|-----7--7--7----7--7--7--|

-------------------------|------------------3----|--0-----0----------0-----|

-----------------------|-------------------------|-----------------------|

-------------3---------|-------------------------|-------------3----3----|

----9--9--0--2----2----|-----9-----9----9-----9--|----9--9--0--0----0----|

----9--9--0--0----2----|-----9--7--9----9--7--9--|----9--9--0--0----0----|

----7--7----------0----|-----7--7--7----7--7--7--|----7--7-----x----x----|

-----------------------|--0-----0----------0-----|-------------3----3----|

-------------------------|------------------------|------------------------|

-------------------------|------------------------|------------------------|

-----9-----7----------5--|----------7-------------|----9-----7----------5--|

--------7-------7--------|----5----------7--------|-------7-------7--------|

--0----------------0-----|-------0----------0--0--|------------------0-----|

-------------------------|------------------------|------------------------|

------------------------|------------------------|------------------------|

------------------------|------------------------|------------------------|

----------7-------------|----9-----7----------5--|----------7-------------|

----5----------5--5-----|-------7-------7--------|----5----------7--------|

-------0-------3--2--0--|------------------0-----|-------0----------0--0--|

------------------------|------------------------|------------------------|

---------------------3--|----3-------------------|------------------|

---------------------3--|----3-----3-------------|------------------|

----9-----7----------0--|----0-----2----------2--|------------------|

-------7-------7-----0--|----0-----0----5--5--2--|------------------|

------------------0--x--|----x--0-------3--2--0--|------------------|

---------------------3--|----3--0----------------|------------------|

-------------------------|------------5--------|-------------------|

----8--7r-5--7--5--------|------------5--7b-7--|----------7b-------|

----7--7r----7--5b-------|---------------7b-7--|----------7b-------|

-------------------7--7--|---------------------|-------------------|

-------------------------|---------------------|-------------------|

-------------------------|---------------------|-------------------|

------------------------|-----------------------|--------------------------|

------------------------|-----------------------|----8-------8-8--8-8--8-8-|

------------------------|--------2---------7b---|-------7b---9-9--9-9--9-9-|

----5h7-7~---4h5-5~-----|--2h4------7~----------|--------------------------|

------------------------|-----------------------|--------------------------|

------------------------|-----------------------|--------------------------|

Release only

----------------------------|----------------------|---------------------------|

---8-8--8--8--------7--5----|-----8~-----7--7~-----|-----8~-------10--10~------|

---7b7b-7b-7r-5h0---7--5----|--9--9~-----7--7~-----|--9--9~---11--11--11~----9/|

------------------7---------|----------------------|---------------------------|

----------------------------|----------------------|---------------------------|

----------------------------|----------------------|---------------------------|

-----------------------------------------------------------|

--13----------13----------13----------13-13----13----13----|

--14-14-12/14----14-12/14----14-12/14-14-14-14----14----14-|

-----------------------------------------------------------|

-----------------------------------------------------------|

-----------------------------------------------------------|

--12--12------10--10~-------|--10--------------------10----|

--13--13------13b-13~-x-----|--13b---12r---10/---10-----10-|

-------------------------x--|------------------------------|

----------------------------|------------------------------|

----------------------------|------------------------------|

----------------------------|------------------------------|

----------10----10----------------|------------17-------17-------|

----13-10----10-10----10--10/-----|--15--17b-------17b-----17b---|

-------------------------------14-|------------------------------|

----------------------------------|------------------------------|

----------------------------------|------------------------------|

----------------------------------|------------------------------|

--17--17---------------------------|---------------------------17----|

--17b-17b-19r---15-18h15----15-----|--------20--------20----------20-|

-------------------------16------0-|--19b---21----19b----19b---------|

-----------------------------------|---------------------------------|

-----------------------------------|---------------------------------|

-----------------------------------|---------------------------------|

------------------------------------------|

--17------------------------20b-20~----22-|

------19r-17----19-18---------------------|

-------------19-------19-17---------------|

------------------------------------------|

------------------------------------------|

--17-20-17----17----------20b---20b---|--17--------------------------------|

-----------20b---20b20-17-------------|-----20-17--------------------------|

--------------------------------------|-----------19r--------17~-----------|

--------------------------------------|----------------17-19-------19~-19/-|

--------------------------------------|------------------------------------|

--------------------------------------|------------------------------------|

-------------------------|------------------------|------------------------|

-------------------------|------------------------|------------------------|

-----9-----7----------5--|----------7-------------|----9-----7----------5--|

--------7-------7--------|----5----------7--------|-------7-------7--------|

--0----------------0-----|-------0----------0--0--|------------------0-----|

-------------------------|------------------------|------------------------|

------------------------|------------------------|------------------------|

------------------------|------------------------|------------------------|

----------7-------------|----9-----7----------5--|----------7-------------|

----5----------5--5-----|-------7-------7--------|----5----------7--------|

-------0-------3--2--0--|------------------0-----|-------0----------0--0--|

------------------------|------------------------|------------------------|

------------------------|------------------------|------17--------------------|

---------------------5--|------------------------|----------------------------|

----9-----7----------5--|-------7------------19b-|--19b-19b-19b-19~-------17--|

-------7-------7-----5--|-------7----5--5--------|----------------------------|

------------------0--3--|----0--5----3--2--------|----------------------------|

------------------------|------------------------|----------------------------|

----------------------|------17--------------------|----------------------|

----------------------|----------------------------|----------------------|

--------19~-------19b-|--19b-19b-19b-19~-------17--|--------19~-------19b-|

----------------------|----------------------------|----------------------|

----------------------|----------------------------|----------------------|

----------------------|----------------------------|----------------------|

------17--------------------|----------------------|

----------------------------|----------------------|

--19b-19b-19b-19~-------17--|--------19~-------19b-|

----------------------------|----------------------|

----------------------------|----------------------|

----------------------------|----------------------|

------17--------------------|-------------------------|-----------------------|

----------------------------|-------------------------|-----------------------|

--19b-19b-19b-19~-------17--|--17/--------------------|-----------------------|

----------------------------|-------------------------|-----7--5--7--------7--|

----------------------------|----------12h-12/---5/---|-----------------------|

----------------------------|-------------------------|--x--------------------|

-----------------------|---------------------------|

-----------------------|----10--10--10---------13--|

----------5h7-----5b---|----12b-12--12b---2--------|

--7----7---------------|---------------------------|

-----------------------|---------------------------|

-----------------------|---------------------------|

----------------------------|----------------------------|

----------------13----------|----10--10--10----------20b-|

----14--12h14~-----14~------|----12b-12--12b---4---------|

----------------------------|----------------------------|

----------------------------|----------------------------|

----------------------------|---------------------x------|

---17--------17------------------|---------------------17---------------------|

------17-20b----17--20~----------|----20b20b20~--20b20----20-17------------20-|

-----------------------------0---|------------------------------19r-17-19b----|

-------------------------------0-|--------------------------------------------|

---------------------------------|--0-----------------------------------------|

---------------------------------|--------------------------------------------|

--------------------------------|--------------------------|

--20~-----20--20----20----20----|--------------19----17/---|

--19~-----21--19b---19b---19b---|------17------19----17/---|

--------------------------------|----------19--------------|

--------------------------------|--------------------------|

--------------------------------|--------------------------|

---------------------||

---------------------||

----2-----2----------||

----2-----2----------||

----0-----0----------||

-------3b------------||

Get this song at:  amazon.com sheetmusicplus.com

Share your thoughts

0 Comments found