Ac Dc

Ac Dc - Hell Or High Water guitar tab

Verse riff:

H Q E E E E E E E E E E

E||----------------------|--------------------------|

B||-------------------8--|--8--6--6--5--5--6--6--8--|

G||-------------------7--|--7--5--5--5--5--5--5--7--|

D||----------------------|--------------------------|

A||----------------------|--------------------------|

E||----------------------|--------------------------|

E E E E E E E E E

-----|----------------------------|

-10--|--10--8--8--7--7--8--8--10--|

--9--|---9--7--7--7--7--7--7---9--|

-----|----------------------------|

-----|----------------------------|

-----|----------------------------|

Bridge/chorus riff:

H. E E E E Q Q E E

---------------------|------------------------|

---------------------|------------------------|

---------------------|------------------------|

---------------------|------------------------|

------------------2--|--5--2--0---------2-----|

---------------------|-------------0----------|

S S S S E S S E E E E

----------------------------------|

------10-10-10--9-9-9--10--10-----|

----x--9--9--9--9-9-9---9---9-----|

----x-----------------------------|

----------------------------------|

----------------------------------|

Pre-chorus:

E E E E E E E E E E E E E E E

--------------------------|--------------------------|

--------------------------|--------------------------|

--------------------------|--------------------------|

--------------------------|--------------------------|

-----2--2--2--2--2--2--2--|--2--2--2--2--2--2--2--2--|

-----0--0--0--0--0--0--0--|--0--0--0--0--0--0--0--0--|

Chorus:

E E E E E E E E E E E Q Q E E E Q Q E E

--------------------------|------------------------|------------------------|

--------------------------|------------------------|------------------------|

--------------------------|------------------------|------------------------|

--------------------------|--7--7--7--7----4-------|------------------------|

--2--2--2--2--2--2--2--2--|--5--5--4--5----2----2--|--5--2--0---------2-----|

--0--0--0--0--0--0--0--0--|------------------------|-------------0----------|

Added by tabs-database.com and our distinguished partners

Get this song at:  amazon.com sheetmusicplus.com

Share your thoughts

0 Comments found