Ac Dc

Ac Dc - Hell Ain't A Bad Place To Be guitar tab

AC/DC - Hell Ain't a Bad Place to Be

Tabbed By: trevwh0re

If you don't know how many times to play each part, then you obviously haven't heard the

song. Listen to a song thoroughly before you try to learn it.

Intro:

|--3---2---3---2---3---2-------|

|--3---3---3---3---3---3---2---|

|--0---2---0---2---0---2---2---|

|--0---0---0---0---0---0---2---|

|--2---0---2---0---2---0---0---|

|--3-------3-------3-----------|

Verses:

|----------------------------------|

|----------------------------------|

|----------------------------------|

|--5---4---5---4---5---4---5-777---|

|--0---0---0---0---0---0---0-000---|

|----------------------------------|

Chorus':

|--2---3---2---3-3-3-3--2---------------3---|

|--3---3---3---3-3-3-3--3-------2-------3---|

|--2---0---2---0-0-0-0--2-------2-------0---|

|--0---0---0---0-0-0-0--0---2---2---2---0---|

|--0---2---0---2-2-2-2--0---2---0---2---2---|

|------3-------3-3-3-3------0-------0---3---|

Get this song at:  amazon.com

Share your thoughts

0 Comments found