Ac Dc

Ac Dc - Hail Cesar bass tab

AC/DC - "Hail Cesar"

Ballbreaker

1995

Tabbed by Tracii for the BassMasta!

Intro

G|--------------------|

D|--------------------|

A|--------------------|

E|-3-0--3-0--3-0--3-5-|

Verse 1

G|-----------|

D|-----------| Repeat as

A|-----------| needed

E|-0-3-5-3-0-|

G|-----------|

D|-----------| Repeat as

A|---1-3-1---| needed

E|-3-------3-|

PreChorus

G|-------------------------|

D|-------------------------|

A|-0-3-5-3---3-0--3-0--3-5-|

E|-------------------------|

G|-----------|

D|-----------| Repeat as

A|---1-3-1---| needed

E|-3-------3-|

G|-------------------------------|

D|---1---------1---------1---1-5-|

A|-3---3-3---3---3-3---3---3-----|

E|-------------------------------|

Chorus

G|--------------------|

D|--------------------|

A|--------------------|

E|-3-0--3-0--3-0--3-5-|

Verse 2

G|-----------|

D|-----------| Repeat as

A|-----------| needed

E|-0-3-5-3-0-|

G|-----------|

D|-----------| Repeat as

A|-0-3-5-3-0-| needed

E|-----------|

PreChorus 2

G|-------------------------|

D|-------------------------|

A|-0-3-5-3---3-0--3-0--3-5-|

E|-------------------------|

G|-----------|

D|-----------| Repeat as

A|-0-3-5-3-0-| needed

E|-----------|

G|-------------------------------|

D|---1---------1---------1---1-5-|

A|-3---3-3---3---3-3---3---3-----|

E|-------------------------------|

Repeat Chorus.

Bridge

G|-----------|-----------|

D|-3-1-------|-3-1-------|

A|-----5-3---|-----5-3---|

E|---------5-|---------5-|

G|-----------------------|

D|-5-3---1----1----1-3---| Repeat as

A|-----3---3----3------3-| needed

E|-----------------------|

Final Chorus

G|--------------------|

D|--------------------|

A|--------------------|

E|-3-0--3-0--3-0--3-5-|

G|-----------------------|

D|-5-3---1----1----1-3---| Repeat as

A|-----3---3----3------3-| needed

E|-----------------------|

G|--------------------|

D|--------------------|

A|--------------------|

E|-3-0--3-0--3-0--3-5-|

G|-------------------|

D|-------------------|

A|-------------------|

E|-3-0--3-0--3-0--3~~| Fade out

Please rate and put your comments.

Enjoy.

Get this song at:  amazon.com sheetmusicplus.com

Share your thoughts

0 Comments found