Ac Dc

Ac Dc - Hail Caeser guitar tab

AC/DC-Hail Caesar.

Tabbed by Laura Grillo- LauraGrillo@Yahoo.com.ar.

Hail Caesar

Tabbed By Laura Grillo

Intro (x4):

---------------------------------

---------------------------------

---------------------------------

---------------------7-----------

-2-2---2-2---2-2---2-7-----------

-3-0---3-0---3-0---3-5-----------

And the verse goes like:

...Of a new rage:

---------------------------------|---------------------------------------------------

---------------------------------|---------------------------------------------------

---------------------------------|---------------------------------------------------

---------------------------------|---------------------------------------------------

---------------------------------|----0--3--5--3--0---0--3--5--3--0--

-0--3--5--3--0---0--3--5--3--0---|---------------------------------------------------

-------------------------------------------------------------------------------------

-------------------------------------------------------------------------------------

-------------------------------------------------------------------------------------

--0--3--5--0--3--0--3--0--3--5-------------------------------------------------------

----------------------------------0--3--5--3--5---0--3--5--3--0-----

-------------------------------------------------------------------------------------

..to the lions

--------------------------------------------------------------------

--------------------------------------------------------------------

--------------------------------------------------------------------

--------------------------------------------------------------------

---------------2--5--2--2--2—-5-—2--2--2--5--2--5-------------------

--------------------------------------------------------------------

Here, play the Intro during the Chorus-

On 2nd Verse it changes when Brian sings:

Starring at the Coliseum:

-------------------------------------------------------------------------------------

-------------------------------------------------------------------------------------

-------------------------------------------------------------------------------------

-------------------------------------------------------------------------------------

-0--3--5--3--0--0--3--5--3--0--0--3--5--0--3--0--3--0--3--5---------

-------------------------------------------------------------------------------------

------------------------------------------------------------------------------------------------------------------------------------------------------------------------------------------------------------------------------------------------------------------------------------------------------0--3--5--3--0--0--3--5--3--0---2--5--2--2--2--5--2--2--2--5--2--5------

-------------------------------------------------------------------------

Once again, the Intro during Chorus

SOLO (Sorry I didn’t worked on that)

...Richter Scale: I said Hail:

---------------------------------------------------------------------------------------------------------------------------------------------------------------------------------------------------------------------------------------------------------------------------7-------------------------------------------------------2-2--2-2--2-2--2-7-2----------------------

--------------------0----------3-0--3-0—-3-0--3-5-0-------0--3--5--3--0--

(let ring)

------------------------------------------------------------------------

------------------------------------------------------------------------

------------------------------------------------------------------------

------------------------------------------------------------------------

--5--2--0---------------------------------------------------------------

-----------3--0----0--3--5--3--0------0--3--5--3--0---------------------

(After saying Hail 9 times)

-------------------|----------------------------------------------------

-------------------|----------------------------------------------------

-------------------|----------------------------------------------------

-------------------|----------------------------------------------------

-------------------|----------------------------------------------------

--0--3--5--3--0----|-------------0--3--5--3--0--3--5--3--0--3--5--3—0---

And That’s All.

HAIL CAESAR:

He be the count of Monte Cristo

Could de a quake any day

Maybe somebody from Siam

Begin the era of a new rage

Keeps lickin’ all the honey

Chewin’ up the fat he rakes

Instead of sending to the lions

They cover him with praise

All Hail Caesar, Hail, Hail!

All Hail Caesar, Hail, Hail!

Down at the epicenter

Things start heatin’ up

Rockin’ at the Richter Scale

Swinging in the chariot

Around and around we go

The senators rehearse the tale

Starring at the Coliseum

Tied upon the rack

Up comes the thumb of Caesar

To stab you in the back

Chorus

Down at the epicenter

Things start heatin’ up

Rockin’ on the Richter Scale

Swingin’ on the chariot

Around and around we go

The senators rehearse the tale

“Watch out Caesar, watch out Caesar”

I said Hail, I said Hail!

Hail (x9)

Chorus

You need eyes in the back of you head boy,

Or you’re dead.

:: Ultimate Guitar Archive ::

http://www.ultimate-guitar.com

Get this song at:  amazon.com

Share your thoughts

0 Comments found